Red Hot Chili Peppers - Sir Psycho Sexy Chords & Tabs

 

Sir Psycho Sexy Chords & Tabs

Red Hot Chili Peppers Chords & Tabs

Version: 1 Type: Tab 5 ratings
1 star 2 stars 3 stars 4 stars 5 stars
comments

Sir Psycho Sexy Tab

   
SIR PSYCHO SEXY
As recorded by Red Hot Chili Peppers
(From the 1991 Album BLOOD SUGAR SEX MAGIK)


Noone has a complete and correct tab for this
One of the chilis best songs, tab is 100% correct

 Words and Music by Red Hot Chili Peppers

 

E7+9
x 7 6 7 8 7 E9
x 7 6 7 7 7 E13
x x x 9 9 9 E9/D
x x x 7 7 7 
A7
5 7 5 6 5 x B7
7 9 7 8 7 x Cmaj7
8 x 9 9 8 x G7
3 5 3 4 6 x 
Em
x 7 9 9 8 7 Eb
x 6 8 8 8 x Bb
6 8 8 7 6 6 D
x 5 7 7 7 x 
Ab
4 6 6 5 4 4 



 Intro
  Moderate Funk Q=85
  N.C.(E7+9)
 4/4
  Gtr I
|-x------------------|-------x-x-x----------|-------x-x-----------------|
|-x------x-----------|-------x-x-x----------|-------x-x-----------------|
|---------x-----------|---x-x-x-x-x-x-x------|-------x-x-----------------|
|-----------x-5-5-5---|-x--------------------|-x-x-x-----x-x-x-5-5-5-5---|
|----xSx-------------|-----------------5-7--|---------------------------|
|----xSx-------------|----------------------|---------------------------|


                                Pre-Verse (1)
|---------x-x-----------------||-------x-x---------------|
|-x-------x-x-----------------||-------x-x---------------|
|-x-------x-x-----------------||-x-----x-x-x-------------|
|---x-x-x-----x-x-x-x-x-0tr2--||---x-x-------x-5-5-5-----|
|-----------------------------||----------------------x-|
|-----------------------------||-------------------------|


                   ~
|-(1)-------------------|---------------------|
|--x--------------------|---------------------|
|-----------------------|-----x-x-------------|
|-----------------------|---------x-x-5-5-5---|
|------/xSx--(5)-5-7-5p|=0-x-----------------|
|------/xSx-------------|---------------------|


                        Pre-Verse (2)
                         E7E9        E7+9
|---------------------||-7-7--7-7--x-7-7---|
|---------------------||-8-7--7-7--x-8-8---|
|-x-------------------||-7-7--7-7--x-7-7---|
|---x-x-x-x-x---------||-6-6--6-6--x-6-6---|
|-------------5-5-5-5-||-7-7--7-7--x-7-7---|
|---------------------||-------------------|


    E9 E7+9 E9   E1E9/DE7E9      E7+9    E9     E7+9
|-7-7--7--7-7--x-9s7-|-7-7--7--x-7-7---|-7-7--7-7-7-----||
|-8-7--8--8-7--x-9s7-|-8-7--7--x-8-8---|-7-7--7-8-8-----||
|-7-7--7--7-7--x-9s7-|-7-7--7--x-7-7---|-7-7--7-7-7-----||
|-6-6--6--6-6--------|-6-6--6--x-6-6---|-6-6--6-6-6-----||
|-7-7--7--7-7--------|-7-7--7--x-7-7---|-7-7--7-7-7-----||
|--------------------|-----------------|----------------||


 Pre-Verse (3)
    E9 E7+9             E9 E7+9 E9   E1E9/D
|-7-7--7-7--x-7-7---|-7-7--7--7-7--x-9s7-|
|-8-7--8-8--x-8-8---|-8-7--8--8-7--x-9s7-|
|-7-7--7-7--x-7-7---|-7-7--7--7-7--x-9s7-|
|-6-6--6-6--x-6-6---|-6-6--6--6-6--------|
|-7-7--7-7--x-7-7---|-7-7--7--7-7--------|
|-------------------|--------------------|


  E9E7+9            E9E7+9
|-7-7--7--x-7-7---|-7-7--7----------||
|-7-8--8--x-8-8---|-7-8--8----------||
|-7-7--7--x-7-7---|-7-7--7----------||
|-6-6--6--x-6-6---|-6-6--6----------||
|-7-7--7--x-7-7---|-7-7--7--5-5-5-5-||
|-----------------|-----------------||


 Verse 1
  E7E9        E7+9      E9 E7+9 E9   E1E9/D
|-7-7--7-7--x-7-7---|-7-7--7--7-7--x-9s7-|
|-8-7--7-7--x-8-8---|-8-7--8--8-7--x-9s7-|
|-7-7--7-7--x-7-7---|-7-7--7--7-7--x-9s7-|
|-6-6--6-6--x-6-6---|-6-6--6--6-6--------|
|-7-7--7-7--x-7-7---|-7-7--7--7-7--------|
|-------------------|--------------------|


  E7E9      E7+9    E9     E7+9
|-7-7--7--x-7-7---|-7-7--7-7-7-----|
|-8-7--7--x-8-8---|-7-7--7-8-8-----|
|-7-7--7--x-7-7---|-7-7--7-7-7-----|
|-6-6--6--x-6-6---|-6-6--6-6-6-----|
|-7-7--7--x-7-7---|-7-7--7-7-7-----|
|-----------------|----------------|


            E9E7+9    E9 E7+9 E9   E1E9/DE7E9        E7+9
|-7-7--7--x-7-7---|-7-7--7--7-7--x-9s7-|-7-7--7-7--x-7-7----|
|-8-8--8--x-7-8---|-8-7--8--8-7--x-9s7-|-8-7--7-7--x-8-8----|
|-7-7--7--x-7-7---|-7-7--7--7-7--x-9s7-|-7-7--7-7--x-7-7----|
|-6-6--6--x-6-6---|-6-6--6--6-6--------|-6-6--6-6--x-6-6----|
|-7-7--7--x-7-7---|-7-7--7--7-7--------|-7-7--7-7--x-7-7----|
|-----------------|--------------------|--------------------|


                            E9E7+9    E9 E7+9 E9   E13 E9/D
|-7-7--7-7------|-7-7--7--x-7-7---|-7-7--7--7-7--x-9s7--|
|-8-8--8-8------|-8-8--8--x-7-8---|-8-7--8--8-7--x-9s7--|
|-7-7--7-7------|-7-7--7--x-7-7---|-7-7--7--7-7--x-9s7--|
|-6-6--6-6------|-6-6--6--x-6-6---|-6-6--6--6-6---------|
|-7-7--7-7-5----|-7-7--7--x-7-7---|-7-7--7--7-7---------|
|---------------|-----------------|---------------------|


  E7E9        E7+9
|-7-7--7-7--x-7-7---|-7-7--7-7------||
|-8-7--7-7--x-8-8---|-8-8--8-8------||
|-7-7--7-7--x-7-7---|-7-7--7-7------||
|-6-6--6-6--x-6-6---|-6-6--6-6------||
|-7-7--7-7--x-7-7---|-7-7--7-7-5----||
|-------------------|---------------||


 Chorus
  $
  N.C.(G7)
             ~~
|------------------------|------------------|
|----11------------------|------------------|
|--------10-12-x-x-3-3b4-|-(3)--------------|
|-x----------------------|--------5-4-3--x-|
|------------------------|---------------x-|
|------------------------|------------------|


|-------------------------------|----------------|
|-----11b12-(11)----------------|----------------|
|-----------------10-12--3-3b4-|-(3)------------|
|--x/---------------------------|--------5-4-3---|
|--x/---------------------------|----------------|
|-------------------------------|----------------|


                   ~~
|-------------------------|--------------------|
|-------11b12-------------|--------------------|
|--------------10-12--3b4-|-----x-x------------|
|-x-x/--------------------|--x------x-x-5-4-3--|
|---x/--------------------|--------------------|
|-------------------------|--------------------|


                              To Coda
|---------------------|----------------||
|----11b12------------|----------------||
|----------x-10-12--3-|-(3)------(3)S5-||
|-x-------------------|----------------||
|---------------------|----------------||
|---------------------|----------------||


 Pre-Verse 2
  E7E9        E7+9      E9 E7+9 E9   E1E9/D
|-7-7--7-7--x-7-7---|-7-7--7--7-7--x-9s7-|
|-8-7--7-7--x-8-8---|-8-7--8--8-7--x-9s7-|
|-7-7--7-7--x-7-7---|-7-7--7--7-7--x-9s7-|
|-6-6--6-6--x-6-6---|-6-6--6--6-6--------|
|-7-7--7-7--x-7-7---|-7-7--7--7-7--------|
|-------------------|--------------------|


  E7E9      E7+9    E9     E7+9
|-7-7--7--x-7-7---|-7-7--7-7-7-----||
|-8-7--7--x-8-8---|-7-7--7-8-8-----||
|-7-7--7--x-7-7---|-7-7--7-7-7-----||
|-6-6--6--x-6-6---|-6-6--6-6-6-----||
|-7-7--7--x-7-7---|-7-7--7-7-7-----||
|-----------------|----------------||


 Verse 2
    E9 E7+9             E9 E7+9 E9   E1E9/D
|-7-7--7-7--x-7-7---|-7-7--7--7-7--x-9s7-|
|-8-7--8-8--x-8-8---|-8-7--8--8-7--x-9s7-|
|-7-7--7-7--x-7-7---|-7-7--7--7-7--x-9s7-|
|-6-6--6-6--x-6-6---|-6-6--6--6-6--------|
|-7-7--7-7--x-7-7---|-7-7--7--7-7--------|
|-------------------|--------------------|


  E9E7+9            E9E7+9
|-7-7--7--x-7-7---|-7-7--7----------|
|-7-8--8--x-8-8---|-7-8--8----------|
|-7-7--7--x-7-7---|-7-7--7----------|
|-6-6--6--x-6-6---|-6-6--6----------|
|-7-7--7--x-7-7---|-7-7--7--5-5-5-5-|
|-----------------|-----------------|


  E7E9        E7+9      E9 E7+9      E1E9/D
|-7-7--7-7--x-7-7---|-7-7--7--7-7--x-9s7-|
|-8-8--7-7--x-8-8---|-8-7--8--8-7--x-9s7-|
|-7-7--7-7--x-7-7---|-7-7--7--7-7--x-9s7-|
|-6-6--6-6--x-6-6---|-6-6--6--6-6--------|
|-7-7--7-7--x-7-7---|-7-7--7--7-7--------|
|-------------------|--------------------|


  E7E9      E7+9    E9     E7+9
|-7-7--7--x-7-7---|-7-7--7-7-7-----|
|-8-7--7--x-8-8---|-7-7--7-8-8-----|
|-7-7--7--x-7-7---|-7-7--7-7-7-----|
|-6-6--6--x-6-6---|-6-6--6-6-6-----|
|-7-7--7--x-7-7---|-7-7--7-7-7-----|
|-----------------|----------------|


    E9 E7+9             E9 E7+9 E9   E1E9/D
|-7-7--7-7--x-7-7---|-7-7--7--7-7--x-9s7-|
|-8-7--8-8--x-8-8---|-8-7--8--8-7--x-9s7-|
|-7-7--7-7--x-7-7---|-7-7--7--7-7--x-9s7-|
|-6-6--6-6--x-6-6---|-6-6--6--6-6--------|
|-7-7--7-7--x-7-7---|-7-7--7--7-7--------|
|-------------------|--------------------|


  E9E7+9            E9E7+9
|-7-7--7--x-7-7---|-7-7--7----------|
|-7-8--8--x-8-8---|-7-8--8----------|
|-7-7--7--x-7-7---|-7-7--7----------|
|-6-6--6--x-6-6---|-6-6--6----------|
|-7-7--7--x-7-7---|-7-7--7--5-5-5-5-|
|-----------------|-----------------|


            E9E7+9    E9 E7+9 E9   E1E9/D
|-7-7--7--x-7-7---|-7-7--7--7-7--x-9s7-|
|-8-8--8--x-7-8---|-8-7--8--8-7--x-9s7-|
|-7-7--7--x-7-7---|-7-7--7--7-7--x-9s7-|
|-6-6--6--x-6-6---|-6-6--6--6-6--------|
|-7-7--7--x-7-7---|-7-7--7--7-7--------|
|-----------------|--------------------|


                       D.S. al Coda
  E7E9        E7+9
|-7-7--7-7--x-7-7---|-7-7--7-7------||
|-8-7--7-7--x-8-8---|-8-8--8-8------||
|-7-7--7-7--x-7-7---|-7-7--7-7------||
|-6-6--6-6--x-6-6---|-6-6--6-6------||
|-7-7--7-7--x-7-7---|-7-7--7-7-5----||
|-------------------|---------------||


   Interlude
    &
    Am      Bm     C
    Gtrs I, III
||-----------------------------------------|
||o-5--------7------8----------------------|
||--5--------7------9-----x----------------|
||---------------------------5-----7-------|
||o----------------------------------------|
||--5--------7------8----------------------|
|
|   Gtr II
||-----------------------------------------|
||o---12-13-12-----12-13-12----------------|
||-------------14-----------14-12----12-14-|
||--------------------------------14-------|
||o----------------------------------------|
||-----------------------------------------|


          Bm      Am
|-----------------------------------------|
|-8--8-----7----7--5----------------------|
|-9--9-----7----7--5-----x--5-------------|
|---------------------------------7-------|
|-----------------------------------------|
|-8--8-----7----7--5----------------------|
|
|-----------------------------------------|
|---12-13-12------12-13-12----15----13----|
|------------14------------14----14----14-|
|-----------------------------------------|
|-----------------------------------------|
|-----------------------------------------|


          Bm     C
|----------------------------------------|
|-5--------7------8----------------------|
|-5--------7------9-----x----------------|
|--------------------------5-----7-------|
|----------------------------------------|
|-5--------7------8----------------------|
|
|----------------------------------------|
|---12-13-12-----12-13-12----------------|
|------------14-----------14-12----12-14-|
|-------------------------------14-------|
|----------------------------------------|
|----------------------------------------|


 1.
          Bm      Am
                                    ~~
|-----------------------------------------------||
|-8--8-----7----7--5---------------------------o||
|-9--9-----7----7--5----7b9-(7)-----5-----------||
|-----------------------------------------------||
|----------------------------------------------o||
|-8--8-----7----7--5----------------------------||
|
|-----------------------------------------------||
|---12-13-12------12-13-----12-----15----13----o||
|------------14-----------------14----14----14--||
|-----------------------------------------------||
|----------------------------------------------o||
|-----------------------------------------------||


  2.
|------------------x-5--6-|------||
|-8--8-----7-----7-x-5--6-|------||
|-9--9-----7-----7-x-5--6-|------||
|--------------------4--4-|------||
|-------------------------|------||
|-8--8-----7-----7--------|-0----||
|
|-------------------------|------||
|---12-13-12----12--------|------||
|------------14-----------|------||
|-------------------------|------||
|-------------------------|------||
|-------------------------|------||


   Interlude Verse
    N.C.(E7+9)
    Gtr I
                                               ~
                                                    3x
||--------x-x---------------|-(1)-------------------||
||o-------x-x---------------|--x-------------------o||
||--x-----x-x-x-------------|-----------------------||
||----x-x-------x-5-5-5-----|-----------------------||
||o----------------------x-|------/xSx--(5)-5-7-5-o||
||--------------------------|------/xSx-------------||


                               A7
|----------------------------|----------------||
|----------------------------|-5------(5)-----||
|------x-x-------------------|-6------(6)-----||
|--x-x-----x-x-x-5-5-5h(6)---|-5------(5)-----||
|----------------------------|-7------(7)-(0)-||
|----------------------------|-5------(5)-----||


   Interlude Verse 2
    Em7                                    B7
    T       T     T     T      T           T       T     T     T      T
||----------------------7(19)-(7(19))----|--------------------------------------|
||o---------------8(20)------------------|---------------------7(19)-(7(19))----|
||----------7(19)------------------------|---------------8(20)------------------|
||---------------------------------------|---------7(19)------------------------|
||o--------------------------------------|--------------------------------------|
||--7(19)--------------------------------|-7(19)--------------------------------|


  Em                                   B7
  T       T     T     T     T          T     T     T     T     T      T       T
|---------7(19)-7(19)----------------|------------------------------------------------|
|---------------------8(20)-8(20)----|-------------------7(19)----------------7(19)---|
|------------------------------------|-------------------------8(20)-(8(20))--8(20)---|
|------------------------------------|-------------7(19)----------------------7(19)---|
|------------------------------------|-------9(21)----------------------------9(21)---|
|-7(19)------------------------------|-7(19)----------------------------------7(19)---|


  Em7
  T      T     T     T      T
|--------------7(19)------------------|
|--------------------8(20)-(8(20))----|
|--------7(19)------------------------|
|-------------------------------------|
|-7(19)-------------------------------|
|-------------------------------------|


  B7                                            A7
  T     T     T     T     T     T      T         T
|------------------------------------------------------|
|-------------------------7(19)-----------------5(17)-|
|-------------------8(20)-------8(20)-(8(20))---6(18)-|
|-------------7(19)-----------------------------5(17)-|
|-------9(21)-----------------------------------7(19)-|
|-7(19)-----------------------------------------5(17)-|

[ Tab from: http://www.guitartabs.cc/tabs/r/red_hot_chili_peppers/sir_psycho_sexy_tab.html ]
  1.
  T     T     T     T     T     T     T     T
|-------------------------------------------------|
|-5(17)-5(17)-5(17)-5(17)-5(17)-5(17)-5(17)-5(17)-|
|-6(18)-6(18)-6(18)-6(18)-6(18)-6(18)-6(18)-6(18)-|
|-5(17)-5(17)-5(17)-5(17)-5(17)-5(17)-5(17)-5(17)-|
|-7(19)-7(19)-7(19)-7(19)-7(19)-7(19)-7(19)-7(19)-|
|-5(17)-5(17)-5(17)-5(17)-5(17)-5(17)-5(17)-5(17)-|


          B7
   T      T     T     T      T
|---------------------------------------||
|-(5(17))S7(19)-7(19)-7(19)-(7(19))----o||
|-(6(18))S8(20)-8(20)-8(20)-(8(20))-----||
|-(5(17))S7(19)-7(19)-7(19)-(7(19))-----||
|-(7(19))S9(21)-9(21)-9(21)-(9(21))----o||
|-(5(17))S7(19)-7(19)-7(19)-(7(19))-----||


  2.
  Cmaj7                             B7
  T       T     T       T           T
|---------------------------------|--------------------||
|-8(20)---------------------------|--------------------||
|-9(21)---9(21)-9(21)---9(21)-----|-----------(8)------||
|-9(21)----------------(9(21))-7-|-7(19)----------(0)-||
|---------------------------------|--------------------||
|-8(20)----------------(8(20))----|--------------------||


 Verse 3 (Guitar Solo)
  EE99                    E7+9        E9     E7+9           E9     E1E9/D
  Gtr I
  ||       | |        |   |   |      ||       |          |  |    | | |
  //       / /        x   /   /      //       /          /  /    x / /

  Gtr IV
|--------------()----------|-----------------------------------|
|----------------------------------|-----------------------------------|
|------------------------------12--|---14-15-12--------------14--------|
|---12s10s14---------------14------|-------------11b17-(11)-----14-----|
|----------------------------------|-----------------------------------|
|----------------------------------|-----------------------------------|


  EE99       E7+9                  E9  E7+9
  ||  |    | |           |         || |||
  //  /    x /           /         // ///

|--------------------------------|-----------------------------|
|----------5---------------------|-------12--------------------|
|-------------12b13-(12)--14-15--|----------15-14-15-12-14-----|
|----12-12-----------------------|-------------------------14-|
|--------------------------------|-----------------------------|
|--------------------------------|-----------------------------|


                      E9 E7+9         E9     E7+9   E9          E13   E9/D
  || |             |   |  |          ||       |   |  |        |  |    |
  // /             x   /  /          //       /   /  /        x  /    /

|----------------------------------|-----------------------------------|
|----------------------------------|----------------12-----------------|
|-----12b13-(12)-(12)-12-12-(12)--|---14-15-12--15----15-14-12-14-----|
|----------------------------------|-------------------------------14--|
|----------------------------------|-----------------------------------|
|----------------------------------|-----------------------------------|


  EE99                                  E7+9
  ||                |  |              |  |           |
  //                /  /              x  /           /

|------------------------------------------------------------------------|
|------------------------------------------------------------------------|
|------------------------------------------------------------------------|
|---14b15==(14)r14p12-14b15==(14)r14p12-14b15==(14)r14-15-14b15==(14)r14-|
|------------------------------------------------------------------------|
|------------------------------------------------------------------------|


   |  |              |     |     |
   /  /              /     /     o

|-------------------------------------|
|-------------------------------------|
|-------------------------------------|
|-15-14b15==(14)r14-12-14-------------|
|-------------------------12-14-12----|
|-------------------------------------|


  EE99          E7+9             E9E7+E9      E1E9/D
  ||    ||     ||   |          | | | ||   |   | |
  //    //     x/   /          / / / //   x   / /

|--------------------------|-/19--------(19)----|
|-----------------------12-|---------------------|
|---------/12---14--15----|---------------------|
|---14--------------------|---------------------|
|--------------------------|---------------------|
|--------------------------|---------------------|


  EE99  E7+9  E9  E7+9
  || | |||    || |||
  // / x//    // ///

|-----------|-----------||
|-----------|-----------||
|-----------|-----------||
|-----------|-----------||
|-----------|-----------||
|-----------|-----------||


 Outro
  Em                     Eb
  Gtr I
|----------------------|---------------------------|
|-8--8-8-(8)-8-8-8-8-8-|-8-----8-8-8--------8------|
|-9--9-9-(9)-9-9-9-9-9-|-8---8-8-8-8--------8------|
|-9--9-9-(9)-9-9-9-9-9-|-8-8---8-8-8--------8------|
|-7--7-7-(7)-7-7-7-7-7-|-6-----6-6-6-6-8s10---10s8-|
|----------------------|---------------------------|


  Bb                       D                     Ab                 Eb
|----6-6-6---------------|---------------------|----4------------------|
|----6-6-6---------------|-----7-7-----7-------|----4---------------8--|
|----7-7-7---------------|-----7-7-----7-------|----5---------------8--|
|----8-8-8--------8------|---7-7-7-----7-------|----6-------6-------8--|
|----8-8-8--------8------|-5---5-5-7s9---9s7-5-|----6-------6-----6----|
|-6--6-6-6-6-8s10---10s8-|---------------------|-4--4-4-6s8---8s6------|


  Cm                                   Ab
                          ~~~~~~~
|------------------------------------|----4-------------4---4-|
|---4-(4)------8---------------------|----4---4-(4)-----4h6-4-|
|---------5----8-10-8----------------|----5---------5---5---5-|
|-----------5/-8------10-10-(10)-10-|----6-6---------6-6---6-|
|-3----------------------------------|----6-------------------|
|------------------------------------|-4--4-------------------|


  G                    Em
|-3-3-3-3-3-3-3------|-7--7-7-7-7---------------------------|
|-3-3-3-3-3-3-3-x/---|-8--8-8-8-8-8-10b12==(10)-12-10r10p=8-|
|-4-4-4-4-4-4-4-x/---|-9--9-9-9-9---------------------------|
|-5-5-5-5-5-5-5-x/---|-9--9-9-9-9---------------------------|
|-5-5-5-5-5-5-5-x/-7-|-7--7-7-7-7---------------------------|
|-3-3-3-3-3-3-3------|--------------------------------------|


  Eb                                     Bb
|--------------------------------------|----------------------------------|
|-8---8-8---8-(8)-8---10b11==(10)r10-8-|-6-6-6---6---6-6------------------|
|-8---8-8---8-(8)-8------------------8-|-7-7-7---7---7-7------------------|
|-8-8-8-8---8-(8)-8------------------8-|-8-8-8---8---8-8---------8--------|
|-6-----6-6---------6------------------|-8-8-8----------------8-10p8------|
|--------------------------------------|-6-6-6-6---6-----8s10--------10s8-|


  D                                  Ab               Eb
|----------------------------------|----4-4--------------|
|-----7----------------------------|----4-4h6p4-------8--|
|-----7----------------------------|----5-5-----5-----8--|
|-----7------7----7-7-7--------7-7-|----6---------6s8-8--|
|----------7h9----7-9-7h9p7----7-9-|----6-------------6--|
|-10----10-----10-----------10-----|-4--4----------------|


  Cm                                  Ab
|---------------3h6p3---------------|----4-------------4---4-|
|-----4-(4)-----------4---------6s8-|----4---4-(4)-----4h6-4-|
|-----------5-----------5-(5)-5-----|----5---------5---5---5-|
|-------------5---------------------|----6-6---------6-6---6-|
|-3-3-------------------------------|----6-------------------|
|-----------------------------------|-4--4-------------------|


  G                           Em
|-3-3---3-3-3-3-3-3-3-x-----|-7-7-7-7-7-7-7---------------10------------|
|-3-3---3-3-3-3-3-3-3-x-8-8-|-8-8-8-8-8-8-8-8-10b12==(10)----(10)r10p=8-|
|-4-4---4-4-4-4-4-4-4-x-9-9-|-9-9-9-9-9-9-9-----------------------------|
|-5-5---5-5-5-5-5-5-5-x-9-9-|-9-9-9-9-9-9-9-----------------------------|
|-5-5---5-5-5-5-5-5-5-x-7-7-|-7-7-7-7-7-7-7-----------------------------|
|-3-3-3-3-3-3-3-3-3-3-x-----|-------------------------------------------|


  Eb                                     Bb
                                     ~
|-----------------------11-------------|-6-6-6-6-6----------6--6--(6)----|
|-8-8-8-8-8-------------11--11--(11)---|-6-6-6-6-6----------6--6--(6)----|
|-8-8-8-8-8-10b12==(10)----(10)r=10--8-|-7-7-7-7-7-5b7==(5)---(5)r=5p4-5-|
|-8-8-8-8-8----------------------------|-8-8-8-8-8-----------------------|
|-6-6-6-6-6----------------------------|-8-8-8-8-8-----------------------|
|--------------------------------------|-6-6-6-6-6-----------------------|


  D
|------------------10--------------|
|----7-------------10-10--(10)-----|
|----7---9b11==(9)----(9)r==9--7-7-|
|----7-----------------------------|
|-5--5-5---------------------------|
|----------------------------------|


  Ab               Eb    Cm
|----4---4-(4)---------|----------------------------------|
|----4---4-(4)-----8--|-4-4-(4)-----8--------------------|
|----5-5-5-(5)-5---8--|-5-5-(5)-5---9h11p9----8----------|
|----6-6---------6-8--|-5-5-(5)---5-9------10-9h10p9-----|
|----6-6-----------6--|-3----------------------------10-|
|-4--4-----------------|----------------------------------|


  Ab                           G7
|----4-----------------------|-------------------------|
|----4-----------------------|-6-6-6-6-6-6-6-6-6-6-x-x-|
|----5-----------------------|-4-4-4-4-4-4-4-4-4-4-x-x-|
|----6---------6---6-(6)-6---|-3-3-3-3-3-3-3-3-3-3-x-x-|
|----6---------6-6h8-(8)-6---|-5-5-5-5-5-5-5-5-5-5-x-x-|
|-4--4-4-4-7s8-------------8-|-3-3-3-3-3-3-3-3-3-3-----|


  Em                       Eb
|-7--7-7-7-7-7-7-(7)-7-7-|----------------11-----11------|
|-8--8-8-8-8-8-8-(8)-8-8-|-8-8-8-8-8------11-11--11--11-|
|-9--9-9-9-9-9-9-(9)-9-9-|-8-8-8-8-8-7s12----12-(12)-12-|
|-9--9-9-9-9-9-9-(9)-9-9-|-8-8-8-8-8---------------------|
|-7--7-7-7-7-7-7-(7)-7-7-|-6-6-6-6-6---------------------|
|------------------------|-------------------------------|


  Bb                 D
|-6--6-6-6-6-6-6-6-|-------------------------------|
|-6--6-6-6-6-6-6-6-|-7-7-7-------------------------|
|-7--7-7-7-7-7-7-7-|-7-7-7-------------7-(7)-7-----|
|-8--8-8-8-8-8-8-8-|-7-7-7---------7-9---------9s7-|
|-8--8-8-8-8-8-8-8-|-5-5-5-5-5-7s9-----------------|
|-6--6-6-6-6-6-6-6-|-------------------------------|


  Ab               Eb    Cm
|----4-4---------------|--------------------------------------|
|----4-4h6p4-------8--|-4---4-(4)-----------------8----------|
|----5-5-----5-----8--|-5---------5---------------8h10p8-----|
|----6---------6s8-8--|-5-5---------5s8------8h10-8------10-|
|----6-------------6--|-3---------------8h10-----------------|
|-4--4-----------------|--------------------------------------|


  Ab                                 G7
|----4-----------------------------|-------------------|
|----4-----------------------------|-6-6-6-6-6-6-6-6---|
|----5-----------------------------|-4-4-4-4-4-4-4-4-9-|
|----6-----------6-----------7-----|-3-3-3-3-3-3-3-3---|
|----6---------6-8p6-------6-8p6---|-5-5-5-5-5-5-5-5---|
|-4--4-4-4-6s8-------8-6s8-------8-|-3-3-3-3-3-3-3-3---|


  Em                                   Eb
|-7--7-7------12-12-12-12-12-12-12---|---------------------------------------|
|-8--8-8------12-12-12-12-12-12-12s8-|-8-8-8-(8)-8-8------8----8--(8)-8------|
|-9--9-9-9h12-12-12-12-12-12-12-12---|-8-8-8-(8)-8-8------8----8--(8)-8------|
|-9--9-9-----------------------------|-8-8-8-(8)-8-8------8-8h10-(10)---10s8-|
|-7--7-7-----------------------------|-6-6-6-(6)-6-6-8h10--------------------|
|------------------------------------|---------------------------------------|


  Bb                            D
|----6-6-6------------6-------|-------------------------|
|----6-6-6------------6-------|----7--------------------|
|----7-7-7-3-5b7==(5)---(5)r5-|----7-------------7-(7)--|
|----8-8-8--------------------|----7---------7-9--------|
|----8-8-8--------------------|-5--5-5-5-7s9------------|
|-6--6-6-6--------------------|-------------------------|


  Ab                Eb    Cm
|----4-4h6p4------------|-------------------------|
|----4-------4---/6-8--|---4-(4)-------4-(4)-----|
|----5---------5s=7-8--|---------5-----------5---|
|----6--------------9--|-----------5-----------5-|
|----6--------------6--|-3-----------3-----------|
|-4--4------------------|-------------------------|


                            H.=H
  Ab                        G7
|-------------------------|-------------3---|
|---4-(4)-------4-(4)-----|---3---6-------6-|
|---------5-----------5---|-----4---4-------|
|-----------6-----------6-|-----------5-----|
|-------------------------|-----------------|
|-4-----------4-----------|-3---------------|


    a tempo Q=85
    Em
||--7-7-7-7-7-7-7---------------10------------|
||o-8-8-8-8-8-8-8-8-10b12==(10)----(10)r10p=8-|
||--9-9-9-9-9-9-9-----------------------------|
||--9-9-9-9-9-9-9-----------------------------|
||o-7-7-7-7-7-7-7-----------------------------|
||--------------------------------------------|


  Eb
                                     ~
|-----------------------11--------------|
|-8-8-8-8-8-------------11--11--(11)----|
|-8-8-8-8-8-10b12==(10)----(10)r=10--8--|
|-8-8-8-8-8-----------------------------|
|-6-6-6-6-6-----------------------------|
|---------------------------------------|


  Bb
|-6-6-6-6-6----------6--6--(6)-----|------------------10------------|
|-6-6-6-6-6----------6--6--(6)-----|----7-------------10-10--10-----|
|-7-7-7-7-7-5b7==(5)---(5)r(5)p4-5-|----7---9b11==(9)----(9)r=9-7-7-|
|-8-8-8-8-8------------------------|----7---------------------------|
|-8-8-8-8-8------------------------|-5--5-5-------------------------|
|-6-6-6-6-6------------------------|--------------------------------|


  Ab               Eb    Cm
|----4---4-(4)---------|---------------------------------|
|----4---4-(4)-----8--|-4-4-(4)-----8-------------------|
|----5-5-5-(5)-5---8--|-5-5-(5)-5---9h11p9----8---------|
|----6-6---------6-8--|-5-5-(5)---5-9------10-9h10p9----|
|----6-6-----------6--|-3----------------------------10-|
|-4--4-----------------|---------------------------------|


  Ab                           G7
|----4-----------------------|--------------------------||
|----4-----------------------|-6-6-6-6-6-6-6-6-6-6-x-x-o||
|----5-----------------------|-4-4-4-4-4-4-4-4-4-4-x-x--||
|----6---------6---6-(6)-6---|-3-3-3-3-3-3-3-3-3-3-x-x--||
|----6---------6-6h8-(8)-6---|-5-5-5-5-5-5-5-5-5-5-x-x-o||
|-4--4-4-4-7s8-------------8-|-3-3-3-3-3-3-3-3-3-3------||



 Ta
Comments