Red Hot Chili Peppers - She Looks To Me Chords & Tabs

 

She Looks To Me Chords & Tabs

Red Hot Chili Peppers Chords & Tabs

Version: 4 Type: Tab

She Looks To Me Tab

Tabbed by: Nick
Date: 5-26-06
Title: She Looks To Me
Band: Red Hot Chili Peppers
Album: Stadium Arcadium (Mars)
Track: 5

Here is "She Looks to Me".  Pretty easy to play and i've tabbed everything
so the song starts at the beginning of the tab and ends at the end of the tab.  I only 
the main
fill in because it took me long enough to tab all of this out, much less solo's over 
 But this is 99% correct if not better.

Intro
e|-5----5----9-----9-----7----7----14-----14------5----5----9-----9-----7-|
B|--7----7----10----10----9----9-----14-----14-----7----7----10----10---9-|
G|---6----6-----9-----9----9----9------14-----14----6----6-----9-----9--9-|
D|------------------------------------------------------------------------|
A|------------------------------------------------------------------------|
E|------------------------------------------------------------------------|

Verse
e|-0-0-0-------------0-0-0----0-0-0-0-| (5X)
B|-1-1-1-x--3-3-3-x--3-3-3-x--1-1-1-1-|
G|-2-2-2-x--3-3-3-x--4-4-4-x--2-2-2-2-|
D|-2-2-2-x--3-3-3-x--5-5-5-x--3-3-3-3-|
A|-0-0-0-x--5-5-5-x--5-5-5-x--3-3-3-3-|
E|------------------------------------|

e|-0-0-0---------0-0-0-0-0-0-0-0---|
B|-1-1-1-x--3-3--3-3-3-3-3-3-3-3---|
G|-2-2-2-x--3-3--4-4-4-4-4-4-4-4---|
D|-2-2-2-x--3-3--5-5-5-5-5-5-5-5---|
A|-0-0-0-x--5-5--5-5-5-5-5-5-5-5---|
E|---------------------------------|

Chorus
e|-5-5-5-x--9--9--9--x--7-7-7-x--14-14-14-14-|  (3X)
B|-7-7-7-x--10-10-10-x--9-9-9-x--14-14-14-14-|
G|-6-6-6-x--9--9--9--x--9-9-9-x--14-14-14-14-|
D|-------------------------------------------|
A|-------------------------------------------|
E|-------------------------------------------|

e|-5-5-5-x--9--9---7-|
B|-7-7-7-x--10-10--9-|
G|-6-6-6-x--9--9---9-|
D|-------------------|
A|-------------------|
E|-------------------|

Verse
e|-0-0-0-------------0-0-0----0-0-0-0-| (3X)
B|-1-1-1-x--3-3-3-x--3-3-3-x--1-1-1-1-|
G|-2-2-2-x--3-3-3-x--4-4-4-x--2-2-2-2-|
D|-2-2-2-x--3-3-3-x--5-5-5-x--3-3-3-3-|
A|-0-0-0-x--5-5-5-x--5-5-5-x--3-3-3-3-|
E|------------------------------------|

e|-0-0-0---------0-0-0-0-0-0-0-0---|
B|-1-1-1-x--3-3--3-3-3-3-3-3-3-3---|
G|-2-2-2-x--3-3--4-4-4-4-4-4-4-4---|
D|-2-2-2-x--3-3--5-5-5-5-5-5-5-5---|
A|-0-0-0-x--5-5--5-5-5-5-5-5-5-5---|
E|---------------------------------|
[ Tab from: http://www.guitartabs.cc/tabs/r/red_hot_chili_peppers/she_looks_to_me_tab_ver_4.html ]
Chorus
e|-5-5-5-x--9--9--9--x--7-7-7-x--14-14-14-14-|  (3X)
B|-7-7-7-x--10-10-10-x--9-9-9-x--14-14-14-14-|
G|-6-6-6-x--9--9--9--x--9-9-9-x--14-14-14-14-|
D|-------------------------------------------|
A|-------------------------------------------|
E|-------------------------------------------|

e|-5-5-5-x--9--9---7-7-7-7-7-|
B|-7-7-7-x--10-10--9-9-9-9-9-|
G|-6-6-6-x--9--9---9-9-9-9-9-|
D|---------------------------|
A|---------------------------|
E|---------------------------|

Bridge
e|-0--0--0-0-0-0-0-0---------------------0--0--0-0-0-0-0-0-/-0-0--0--0-/-|
B|-1--1--1-1-1-1-1-1--3--3--3-3-3-3-3-3--1--1--1-1-1-1-1-1-/-3-1--1--1-/-|
G|-2--2--2-2-2-2-2-2--3--3--3-3-3-3-3-3--2--2--2-2-2-2-2-2-/-4-2--2--2-/-|
D|-2--2--2-2-2-2-2-2--3--3--3-3-3-3-3-3--3--3--3-3-3-3-3-3-/-5-3--3--3-/-|
A|-0--0--0-0-0-0-0-0--5--5--5-5-5-5-5-5--3--3--3-3-3-3-3-3-/-5-3--3--3-/-|
E|-----------------------------------------------------------------------|

-0-0-0-0-0-| (2X)
-3-3-3-3-3-|
-4-4-4-4-4-|
-5-5-5-5-5-|
-5-5-5-5-5-|
-----------|

Guitar Fill (Just play the Verse if you dont play this little solo bit)
e|----------------11b12~~~-16b18~~~-|
B|--------9b10~~~-------------------|
G|-8b9~~~---------------------------|
D|----------------------------------|
A|----------------------------------|
E|----------------------------------|

Verse
e|-0-0-0-------------0-0-0----0-0-0-0-| (3X)
B|-1-1-1-x--3-3-3-x--3-3-3-x--1-1-1-1-|
G|-2-2-2-x--3-3-3-x--4-4-4-x--2-2-2-2-|
D|-2-2-2-x--3-3-3-x--5-5-5-x--3-3-3-3-|
A|-0-0-0-x--5-5-5-x--5-5-5-x--3-3-3-3-|
E|------------------------------------|

e|-0-0-0---------0-0-0-0-0-0-0-0---|
B|-1-1-1-x--3-3--3-3-3-3-3-3-3-3---|
G|-2-2-2-x--3-3--4-4-4-4-4-4-4-4---|
D|-2-2-2-x--3-3--5-5-5-5-5-5-5-5---|
A|-0-0-0-x--5-5--5-5-5-5-5-5-5-5---|
E|---------------------------------|

Chorus
e|-5-5-5-x--9--9--9--x--7-7-7-x--14-14-14-14-|  (3X)
B|-7-7-7-x--10-10-10-x--9-9-9-x--14-14-14-14-|
G|-6-6-6-x--9--9--9--x--9-9-9-x--14-14-14-14-|
D|-------------------------------------------|
A|-------------------------------------------|
E|-------------------------------------------|

e|-5-5-5-x--9--9---7-7-7-7-7-|
B|-7-7-7-x--10-10--9-9-9-9-9-|
G|-6-6-6-x--9--9---9-9-9-9-9-|
D|---------------------------|
A|---------------------------|
E|---------------------------|

Chorus/Outro
e|-7-7-7-x--11-11-11-x--9--9--9--x--16-16-16-16-|  (Play until End)
B|-9-9-9-x--12-12-12-x--11-11-11-x--16-16-16-16-|
G|-8-8-8-x--11-11-11-x--11-11-11-x--16-16-16-16-|
D|----------------------------------------------|
A|----------------------------------------------|
E|----------------------------------------------|

e|-7-7-7-x--11-11--9--|
B|-9-9-9-x--12-12--11-|
G|-8-8-8-x--11-11--11-|
D|--------------------|
A|--------------------|
E|--------------------|

/ - slide
x - mute or scratch
b - bend note to indicated note
~ - vibrato