Red Hot Chili Peppers - Scar Tissue Chords & Tabs

 

Scar Tissue Chords & Tabs

Red Hot Chili Peppers Chords & Tabs

Version: 7 Type: Tab 0 ratings
1 star 2 stars 3 stars 4 stars 5 stars
comments

Scar Tissue Tab

Author/Artist: Red Hot Chili
Title: Scar Tissue
Album: Californication
Transcribed by: Ryan
Email: cauhgr@nrc.com.au

Should be most of the song except for the last solo.

Verse 1
--------------------------------------------------------------------
--------------------------------------------------------------------
----14---14---14---14---9-9/10--10---10---10---10p9-----------------
--------------------------------------------------------------------
--------------------------------------------------------------------
-13----13---13----13----8-8/10----10---10---10---------8------------
                                                                       
      

--------------------------------------------------------------------
--------------------------------------------------------------------
----14----14----14----14-12--9/10-----------10---10p9---------------
--------------------------------------------------------------------
--------------------------------------------------------------------
-13----13----13----13--------8/10-------------10--------8-----------
                                                                       
      

--------------------------------------------------------------------
--------------------------------------------------------------------
----14---14---14---14---9-9/10--10---10---10---10p9-----------------
--------------------------------------------------------------------
--------------------------------------------------------------------
-13----13---13----13----8-8/10----10---10---10---------8------------
                                                                       
      

--------------------------------------------------------------------
----------------13--------------------------------------------------
----14----14--14---12/14--14--14--14--12----------------------------
--------------------------------------------------------------------
--------------------------------------------------------------------
-13----13----13-------------------------------8---------------------
chorus
--------------------------------------------------------------------
--------------------------------------------------------------------
-10---10-10-10-10-10------------------------------------------------
-10---10-10-10-10-10-10-10/12-12-12-12-12-12-----12\10--------------
-8----8--8--8--8--8--10-10/12-12-12-12-12-12-----12\10--------------
---------------------8--8-/10-10-10-10-10-10-----10\8---------------

Verse 2
--------------------------------------------------------------------
--------------------------------------------------------------------
---14----14---14---14--9---9/10-----10---10-----10p9----------------
--------------------------------------------------------------------
--------------------------------------------------------------------
-13----13---13----13---8---8/10------10---10---10--------8----------
                                                                      
      
[ Tab from: http://www.guitartabs.cc/tabs/r/red_hot_chili_peppers/scar_tissue_tab_ver_7.html ]
--------------------------------------------------------------------
-----------------------15--13-----------------18-17-15-13-----------
---14----14---14---------------12--12/14--14------------------------
--------------------------------------------------------------------
--------------------------------------------------------------------
-13----13---13----13------------------------------------------------
 
Lead 1
--(prebend)---------------------------------------------------------
--(14)r13---------------------------------------------13b14---------
-----------14-----(15)r14--12----12b13---14---14b15-----------------
--------------------------------------------------------------------
--------------------------------------------------------------------
--------------------------------------------------------------------
                                                                       
      
Verse 3
--------------------------------------------------------------------
--------------------------------------------------------------------
---14----14---14---14--9---9/10-----10-----10p9-10p9----------------
--------------------------------------------------------------------
--------------------------------------------------------------------
-13----13---13----13---8---8/10------10------------------8----------
                                                                      
      

--------------------------------------------------------------------
------------------13------------------------------------------------
---14----14---14------12s14--14----16-17-16-14----------------------
--------------------------------------------------------------------
--------------------------------------------------------------------
-13----13---13-------------------------------------------8----------
                                                                       
      
Verse 4
--------------------------------------------------------------------
--------------------------------------------------------------------
---14----14---14---14--9---9/10-----10---10-----10p9----------------
--------------------------------------------------------------------
--------------------------------------------------------------------
-13----13---13----13---8---8/10------10---10---10--------8----------
                                                                      
     

--------------------------------------------------------------------
-----------------------15--13-----------------18-17-15-13-----------
---14----14---14---------------12--12/14--14------------------------
--------------------------------------------------------------------
--------------------------------------------------------------------
-13----13---13----13------------------------------------------------
                                                                       
     


Lead 2
--------------------------------------------------------------------
-13b14-(14)r13-13----------------13----13b14(15)r15-13--------------
------------------14--(13)r12-12---14---------14---(15)r14-2--------
--------------------------------------------------------------------
---------------------------------------Bend 13 to-14
hit----------------------
---------------------------------------15-and
release-------------------------
                                                                       
      

---------------------------------------------------------------------
---------------------------------------------------------------------
-(15)r14--14----14b15--16b17-17b18-----------------------------------
---------------------------------------------------------------------
---------------------------------------------------------------------
---------------------------------------------------------------------
                                                                       
      
Verse 5
---------------------------------------------------------------------
---------------------------------------------------------------------
----14---14---14---14---9-9/10------14--14--14-----------------------
---------------------------------------------------------------------
---------------------------------------------------------------------
-13----13---13----13----8-8/10----13---13---13------8----------------
                                                                       
     

----------------------------------------------------------------------
----------------13----------------------------------------------------
----14----14--14---12/14--14--14--14--12------------------------------
----------------------------------------------------------------------
----------------------------------------------------------------------
-13----13----13-------------------------------8-----------------------

Comments