Red Hot Chili Peppers - Scar Tissue Chords & Tabs

 

Scar Tissue Chords & Tabs

Red Hot Chili Peppers Chords & Tabs

Version: 6 Type: Tab 0 ratings
1 star 2 stars 3 stars 4 stars 5 stars
comments

Scar Tissue Tab

   
T1: Marcus Hynes, ozzy_osbourne23@hotmail.com, Red Hot Chili Peppers,
Scar Tissue ( COMPLETE tab ), 05/7/99

S1: This is the COMPLETE tab, all the rest of the tabs on
your site for this song are incomplete.
This tab includes the whole song, including the intro, chorus
and solos., SCAR TISSUE
by the RED HOT CHILI PEPPERS
from the album CALIFORNICATION
tabbed by Marcus Hynes

INTRO 
E:-----------------------------------------------------
B:---10---10---10-10-----------------------------------
G:-------------------9-9/10--10----10----10-10\9-------
D:-----------------------------------------------------
A:-8----8----8-----------------------------------------
E:-------------------8-8/10-----10----10---------------

E:--------------------------------------------------------------
B:---10---10---10-10--------------------------------------------
G:-------------------9-9/10--10----10----10-10\9---12p10-12p10--
D:--------------------------------------------------------------
A:-8----8----8--------------------------------------------------
E:-------------------8-8/10-----10----10------------------------

VERSE RIFF

Each verse riff is pretty much the same, except after the last
"9" on the G string, Frusciante plays a different ending 
riff for each verse, like the "12p10-12p10" in the intro.

Main Riff:
E:-----------------------------------------------------
B:---10---10---10-10-----------------------------------
G:-------------------9-9/10--10----10----10-10\9-------
D:-----------------------------------------------------
A:-8----8----8-----------------------------------------
E:-------------------8-8/10-----10----10---------------

E:----------------------------------------------------------------
B:---10---10---10-10----------------------------------------------
G:-------------------9-9/10--10----10----10-10\9------------------
D:----------------------------------------------------------------
A:-8----8----8----------------------------------------------------
E:-------------------8-8/10-----10----10--------------------------

Ending riffs:

E:------------|-13-12-10--------|--12-13-12-10----|
B:-10---------|----------13-----|--12-13-12-10----|
G:----12-10-9-|-----------------|-----------------|
D:------------|-----------------|-----------------|
A:------------|-----------------|-----------------|
E:------------|-----------------|-----------------|

E:-------------| 
B:-12p10-12p10-|  You don't have to follow the tab exactly, I like
G:-------------|  to improvise and add in some slides to make the
D:-------------|  whole thing sound "spiffier". Sometimes Frusciante
A:-------------|  plays a "10p8" on the high E after the second slide
E:-------------|  from 9 to 10 on the B string.
[ Tab from: http://www.guitartabs.cc/tabs/r/red_hot_chili_peppers/scar_tissue_tab_ver_6.html ]
CHORUS
E:-----------------------------------------------------------
B:-----------------------------------------------------------
G:----10-10-10-10-10-10--------------------------------10-10-
D:-10-10-10-10-10-10-10-10-10/12-12-12-12-12-12-12--10-10-10-
A:-10-8--8--8--8--8--8--10-10/12-12-12-12-12-12-12--10-8--8--
E:-8--------------------8--8-/10-10-10-10-10-10-10--8-------- (
continued )

E:---------------------------------------
B:---------------------------------------
G:-10-10-10-10---------------------------
D:-10-10-10-10-10-10/12---( Improvise )--
A:-8--8--8--8--10-10/12------------------
E:-------------8--8-/10------------------

For the "improvise" part, play the riff below or one of the
verse ending riffs, or just come up with something by yourself.

E:------------------
B:------------------
G:------------------
D:-x-x-x-x-12-12-10-
A:-x-x-x-x-12-12-10-
E:-x-x-x-x-10-10-8--

SOLOS

Each of the solos is easy to play, and sounds really cool.
You CAN play each solo with a metal slide like Frusciante does in the
video, but it isn't necessary, because I don't have a slide,
and it sounds fine.

First solo:
E:----------------------------------------
B:-13\10~---10\8~---8/10-10~---10/12/13~--
G:----------------------------------------
D:----------------------------------------
A:----------------------------------------
E:----------------------------------------

Second solo:
E:---------------------------------------------------------------
B:-15~--15-13-10~--10\8~--13\10~--13\10~------15~--15-13-10~-----
G:---------------------------------------------------------------
D:---------------------------------------------------------------
A:---------------------------------------------------------------
E:---------------------------------------------------------------

E:------------------10/--12/-13~--
B:-10-13-8~--13\10~---------------
G:--------------------------------
D:--------------------------------
A:--------------------------------
E:--------------------------------

Third/ outro solo:
E:---17~--17-15~-----17-12~--12/13\10~--10--8/10-8/10---10--8-5~-
B:---------------------------------------------------------------
G:---------------------------------------------------------------
D:---------------------------------------------------------------
A:---------------------------------------------------------------
E:---------------------------------------------------------------

E:--5-8-3~-3/8-5~-5-------5--5-5-5----------------------------5~-
B:------------------3/5\3----------3/5\3-5-----------------------
G:-----------------------------------------5-5/7\2~--------------
D:---------------------------------------------------------------
A:---------------------------------------------------------------
E:---------------------------------------------------------------

E:---/-13-12-10-8-10-5~--5/8\3~-3/8\5~~~-------------------------
B:---------------------------------------------------------------
G:---------------------------------------------------------------
D:---------------------------------------------------------------
A:---------------------------------------------------------------
E:---------------------------------------------------------------

-Marcus Hynes
Ozzy_Osbourne23@hotmail.com
Comments