Red Hot Chili Peppers - Scar Tissue Chords & Tabs

 

Scar Tissue Chords & Tabs

Red Hot Chili Peppers Chords & Tabs

Version: 4 Type: Tab 14 ratings
1 star 2 stars 3 stars 4 stars 5 stars
comments

Scar Tissue Tab

   
this site has 5 or 6 of this tab and none of them are correct ecept this 1


   Intro
e||-----------------------------------------------------------|
B||---10---10---10---10--5-5/6--6---6---6---6\5---------------|
G||-----------------------------------------------------------|
D||-----------------------------------------------------------|
A||-8----8----8----8-----3-3/5----5---5---5---\3--3-----------|
E||-----------------------------------------------------------|

e|------------------------------------------------------------|
B|---10---10---10---10-8--5/6----8p6-8p6----------------------|
G|------------------------------------------------------------|
D|------------------------------------------------------------|
A|-8----8----8----8-------3/5---------------------------------|
E|------------------------------------------------------------|

   Verse 1  
e|------------------------------------------------------------|
B|---10---10---10---10\-5-5/6--6---6---6---6\5----------------|
G|------------------------------------------------------------|
D|------------------------------------------------------------|
A|-8----8----8----8---\-3-3/5----5---5---5--\3--3-------------|
E|------------------------------------------------------------|
  

e|---------------------8--------------------------------------|
B|---10---10---10---10------10---10---10-8-6-5----------------|
G|------------------------------------------------------------|
D|------------------------------------------------------------|
A|-8----8----8----8-------------------------------------------|
E|------------------------8-10--------------------------------|

Chorus x2
F                         C    Dm                C


Verse 2  (0:32)
e|------------------------------------------------------------|
B|---10---10---10---10--5-5/6--6---6---6---6\5----------------|
G|------------------------------------------------------------|
D|------------------------------------------------------------|
A|-8----8----8----8-----3-3/5----5---5---5---\3--3------------|
E|------------------------------------------------------------|

e|---------------------10-8------------13-12-10-8-------------|
B|---10---10---10---10------8/10-10-10------------------------|
G|------------------------------------------------------------|
D|------------------------------------------------------------|
A|-8----8----8----8-------------------------------------------|
E|----------------------------(10)(10)------------------------|

Chorus x3

Solo 1
e|------------------------------------------------------------|
B|---13\10---10\8---8/10-10---10/12/13------------------------|
G|------------------------------------------------------------|
D|------------------------------------------------------------|
A|------------------------------------------------------------|
E|------------------------------------------------------------|

Verse 3 
e|------------------------------------------------------------|
B|---10---10---10---10--5-5/6--6---6---6h8-6h8----------------|
G|------------------------------------------------------------|
D|------------------------------------------------------------|
A|-8----8----8----8-----3-3/5----5---5------------------------|
E|----------------------------------------------8-------------|
  
[ Tab from: http://www.guitartabs.cc/tabs/r/red_hot_chili_peppers/scar_tissue_tab_ver_4.html ]
e|------------------8-----------------------------------------|
B|---10---10---10-----8-8/10-10-10-12-13-12-10----------------|
G|------------------------------------------------------------|
D|------------------------------------------------------------|
A|-8----8----8----8-------------------------------------------|
E|-----------------------(10)(10)-----------------------------|

Chorus x2

Verse 4  
e|------------------------------------------------------------|
B|---10---10---10---10--5-5/6--6---6---6---6\5----------------|
G|------------------------------------------------------------|
D|------------------------------------------------------------|
A|-8----8----8----8-----3-3/5----5---5---5---\3--3------------|
E|------------------------------------------------------------|
   

e|----------------------8------------12-10--------------------|
B|---10---10---10---10----8/10-10-10-------13-10--------------|
G|------------------------------------------------------------|
D|------------------------------------------------------------|
A|-8----8----8----8-------------------------------------------|
E|--------------------------(10)(10)--------------------------|

Chorus x3

Solo 2 
e|------------------------------------------------------------|
B|--13/15---15\13\10--------10-10\8--------13\10--------------|
G|------------------------------------------------------------|
D|------------------------------------------------------------|
A|------------------------------------------------------------|
E|------------------------------------------------------------|

e|------------------------------------------------10/12/13----|
B|--13/15---17\13\10--------10/13\8------13\10----------------|
G|------------------------------------------------------------|
D|------------------------------------------------------------|
A|------------------------------------------------------------|
E|------------------------------------------------------------|

Verse 5  
e|------------------------------------------------------------|
B|---10---10---10---10--5-5/6--10---10---10---10--------------|
G|------------------------------------------------------------|
D|------------------------------------------------------------|
A|-8----8----8----8-----3-3/5---------------------------------|
E|-----------------------------10---10---10--\8---------------|
    

e|---------------------8--------------------------------------|
B|---10---10---10---10--------10---10---10-8-6-5--------------|
G|------------------------------------------------------------|
D|------------------------------------------------------------|
A|-8----8----8----8-------------------------------------------|
E|------------------------8-8/10------------------------------|

Chorus x3

e|--/17--17\15---/17\12---12/13\10---\8/10|\8/10--10\8\5------|
B|----------------------------------------|-------------------|
G|----------------------------------------|-------------------|
D|----------------------------------------|-------------------|
A|----------------------------------------|-------------------|
E|----------------------------------------|-------------------|

e|--5/8\--------------------|---------------------------------|
B|------8---8/12\10---------|/10----10--10-10-----------------|
G|--------------------7/9\7-|------------------7/9\7--7/9\5---|
D|--------------------------|---------------------------------|
A|--------------------------|---------------------------------|
E|--------------------------|---------------------------------|

e|---------|--------13\12-12---------------------------------||
B|---------|-/10-------------13/15\10--/13\8-(8)/10......----||
G|--5/7\---|-------------------------------------------------||
D|------7--|-------------------------------------------------||
A|---------|-------------------------------------------------||
E|---------|-------------------------------------------------||
Comments