Red Hot Chili Peppers - Scar Tissue Chords & Tabs

 

Scar Tissue Chords & Tabs

Red Hot Chili Peppers Chords & Tabs

Version: 2 Type: Bass Tab 0 ratings
1 star 2 stars 3 stars 4 stars 5 stars
comments

Scar Tissue Bass Tab

Artist:   Red Hot Chili Peppers
Song:     Scar Tissue
Album:    Californication

A tab by Tic Tac
@ = tic_tac_84@hotmail.com
Bass Tab Archive Tabbing Army

Comments:
Original tab by petersson.
Good tab, to bad you left things out

Please email me comments


________________________________________

Intro

G |--12---12-12-12-12-12-12-12/13-----------------------12--
D |----------------------10-10/12--12-12-12-12-12---10------
A |---------------------------------------------------------
E |---------------------------------------------------------

G |--12-12-12-12-12--12/13------------
D |------------------10/12------------
A |----------------------------12\8---
E |-----------------------------------


Verse

G |-------------------------------------
D |-------------------------------------
A |--8-8------------------------8-------
E |------5-5-x8-8/10--10--10-10---10-8--

G |---------------------------------------
D |---------------------------------------
A |--8-8------------------------x0-3-5-3--
E |------5-5-x8-8/10--10--10-10-----------

G |-------------------------------------
D |-------------------------------------
A |--8-8------------------------8-------
E |------5-5-x8-8/10--10--10-10---10-8--         (x6)

G |--------------------------------
D |--------------------------------
A |--8-8---------------------------
E |------x5-5-8/10---10--13---13---


Solo

G |--19-19-19-19-19--17--17--14-14-14-14-14-1414-15-17--17--
D |---------------------------------------------------------
A |---------------------------------------------------------
E |---------------------------------------------------------

G |-----------------------------------------------------
D |-----------------------------------------------------
A |--12-12-12-12-12-12-12-12-14-14-14-14------12--10----
E |-----------------------------------------------------

Verse 2

G |-------------------------------------
D |-------------------------------------
A |--8-8------------------------8-------
E |------5-5-x8-8/10--10--10-10---10-8--

G |---------------------------------------
D |---------------------------------------
A |--8-8------------------------x0-3-5-3--
E |------5-5-x8-8/10--10--10-10-----------

G |-------------------------------------
D |-------------------------------------
A |--8-8------------------------8-------
E |------5-5-x8-8/10--10--10-10---10-8--                (x2)

G |--------------------------------------
D |--------------------------------------
A |--8-8---------------------------------
E |------5-5-x8-8/10--10--10-10--13--13--


No drums Part

G |--------------------------------------
D |--------------------------------------
A |--8-8------------------------x0-3-5-3-
E |------5-5-x8-8/10--10--10-10----------

G |-----------------------------------
D |---------------------/12-10-7------
A |--8-8-------------------------x10--
E |------5-5-x8-8/10-10---------------


Drums again

G |-------------------------------------
D |-------------------------------------
A |--8-8------------------------8-------
E |------5-5-x8-8/10--10--10-10---10-8--         (x2)

G |--------------------------------
D |--------------------------------
A |--8-8---------------------------
E |------x5-5-8/10---10--13---13---



Solo2
[ Tab from: http://www.guitartabs.cc/tabs/r/red_hot_chili_peppers/scar_tissue_btab_ver_2.html ]
G |--19-19-19-19-19--17--17--14-14-14-14-14/17-----------
D |--------------------------------------------17-16-14--
A |------------------------------------------------------
E |------------------------------------------------------

G |------------------------------------------------------
D |------------------------------------------------------
A |--12-12-12-12-12-12-12-12-14-14-14-14-14-14-14-14-----
E |------------------------------------------------------

G |--19-19-19-19-19--17--17--14-14-14-14-14-15-16/17-----------
D |--------------------------------------------------17-16-14--
A |------------------------------------------------------------
E |------------------------------------------------------------

G |--------------------------------------------------------
D |--------------------------------------------------------
A |--12-12-12-12-12-12-12-12-14-14-14-14------12--10-------
E |--------------------------------------------------------


Verse 3

G |------------------------------------- (x4)
D |-------------------------------------
A |--8-8------------------------8-------
E |------5-5-x8-8/10--10--10-10---10-8--

G |--------------------------------
D |--------------------------------
A |--8-8---------------------------
E |------x5-5-8/10---10--13---13---


Solo3

G |--19-19-19-19-19--17--17--14-14-14-14-14-1414-15-17--17--
D |---------------------------------------------------------
A |---------------------------------------------------------
E |---------------------------------------------------------

G |--------------------------------------------------------
D |-------------------------------------15--15--15-15-15---
A |--12-12-12-12-12-12-12-12-14-14-14-14--14--14-----------
E |--------------------------------------------------------


G |--19-19-19-19-19--17--17--14-14-14-14-14-15-11/17----------
D |--------------------------------------------------17-15-14-
A |-----------------------------------------------------------
E |-----------------------------------------------------------

G |-------------------------------------------------------
D |-------------------------------------15--15-15-15-15---
A |--12-12-12-12-12-12-12-12-14-14-14-14--14--------------
E |-------------------------------------------------------


G |--19-19-19-19-19--17--17--14-14-14-14-14--15/17-------------------
D |------------------------------------------------17-16-14-15-14----
A |------------------------------------------------------------------
E |------------------------------------------------------------------

G |-------------------------------------------------------
D |-------------------------------------15--15-15-15-15---
A |--12-12-12-12-12-12-12-12-14-14-14-14--14--------------
E |-------------------------------------------------------


G |--19-19-19-19-19--17--17--14-14-14-14-14--15/17------------
D |------------------------------------------------17-15-16---
A |-----------------------------------------------------------
E |-----------------------------------------------------------

G |---------------------------------
D |---------------------------------
A |--12-12-12-12-12-17-17-17-17-----
E |---------------------------------


The End

_____________________________

Symbols:

/        Slide Up
\        Slide Down
3h4      Hammer on from note 3 too 4
5p4      Pull off from note 5 too 4
~2       Vibrate the note
x        Mute String
2:       Let the note ring
s        Slap Note
p        Pop note
Comments