Red Hot Chili Peppers - Save The Population Chords & Tabs

 

Save The Population Chords & Tabs

Red Hot Chili Peppers Chords & Tabs

Version: 4 Type: Tab 0 ratings
1 star 2 stars 3 stars 4 stars 5 stars
comments

Save The Population Tab

Band/artist: Red Hot Chili Peppers
Album: Greatest hits
Tuning: Normal (EADGBe)

Tabbed by Knut Zetterstrøm

Intro:
e----6-----------8-----8--------------6-----------6-----6------|
B--8---6--4--3------8-----8--------8-----6--4--3-----6-----6---|
G--------------------------------------------------------------|
D--------------------------------------------------------------|
A--------------------------------------------------------------|
E--------------------------------------------------------------|
[ Tab from: http://www.guitartabs.cc/tabs/r/red_hot_chili_peppers/save_the_population_tab_ver_4.html ]
e-----6----------------------------------------------------|
B--8-----6--4--3---8--8--9b--7--5b--3----------------------|
G----------------------------------------------------------|
D----------------------------------------------------------|
A----------------------------------------------------------|
E----------------------------------------------------------|


This is about 100% correct I think.. Later I will tab the whole song
Any questions, e-mail me at eg_e_meg@hotmail.com

Have fun!
Red Hot Chili Peppers rules!
Comments