Red Hot Chili Peppers - Road Trippin Chords & Tabs

 

Road Trippin Chords & Tabs

Red Hot Chili Peppers Chords & Tabs

Version: 9 Type: Tab 0 ratings
1 star 2 stars 3 stars 4 stars 5 stars
comments

Road Trippin Tab

Red Hot Chili Peppers, Road Trippin'.
Tabbed by Coutinho, frusciante@clix.pt.
  
Road Trippin'


    Intro 

                                   Twice
e|-----3----3----3-----------------------|
B|--------0----0-------5-------4------4--|
G|------------------------0-------0------|
D|-----2----2----2-----------------------|
A|---------------------3----3--2----2----|
E|-(0)-----------------------------------|
  
    Riff


e|-----3----3----3-----------------------------|
B|--------0----0-------5-------4------------4--|
G|------------------------0-------------0------|
D|-----2----2----2-----------------------------|
A|---------------------3----3--2---2--2---2----|
E|-(0)-----------------------------------------|
[ Tab from: http://www.guitartabs.cc/tabs/r/red_hot_chili_peppers/road_trippin_tab_ver_9.html ]
e|-----3----3----3-----------------------|
B|--------0----0-------5-------4------4--|
G|------------------------0-------0------|
D|-----2----2----2-----------------------|
A|---------------------3----3--2----2----|
E|-(0)-----------------------------------|
  
  -II-
e|-----3----3--5-3-----------------------|
B|--------0------------5-------4------4--|
G|------------------------0-------0------|
D|-----2----2--4-2-----------------------|
A|---------------------3----3--2----2----|
E|-(0)-----------------------------------|

e|-----3----3----3-----------------------|
B|--------0----0-------5-------4------4--|
G|------------------------0-------0------|
D|-----2----2----2-----------------------|
A|---------------------3----3--2----2----|
E|-(0)-----------------------------------|

            -.-.-.-.-.-.-.-            

(0) I think this is a bass note

    Repeat the part -II-
    Then the intro 4 times

    The chorus... I will tabb it some day...ahh....

    Repeat the riff and the intro twice

    The solo coming soon.......

    End part

e|-3----|                             e|-3--|
B|---0--|                             B|----|
G|------| 16 times and the final note G|----|
D|-2-2--|                             D|-2--|
A|------|                             A|----|
E|------|                             E|----|

Note: Let all the notes ring (riff,intro and end)

    There are a few mistakes so email me !
    (frusciante@clix.pt)

                   Good luck! Bye...     
:: Ultimate Guitar Archive :: 
http://www.ultimate-guitar.com 

Comments