Red Hot Chili Peppers - Road Trippin Chords & Tabs

 

Road Trippin Chords & Tabs

Red Hot Chili Peppers Chords & Tabs

Version: 8 Type: Tab 0 ratings
1 star 2 stars 3 stars 4 stars 5 stars
comments

Road Trippin Tab

   
group: Red Hot Chili Peppers
song: Road Trippin' 

name: Frank Verwijs (l.verwijs@gironet.nl)


Riff:
 Em                        C             B/G

-----3-----------3---------0---------------------------------
-----------------------------1------1----4--------4----------
--------0-----------0---0------------------0-----------------
-2--------2-----------2----------2---------------------------
---------------------------3-------------2---2---------------
-0-----------------------------------------------------------

End of Chorus( not sure!)
Do somethin with these chords:
[ Tab from: http://www.guitartabs.cc/tabs/r/red_hot_chili_peppers/road_trippin_tab_ver_8.html ]
 C         B/G        Am7       G6

---------------------------------0--------------------
1-----------4-----------1-----------------------------
0-----------0-----------0--------0--------------------
------------------------2--------0--------------------
3-----------2-----------0-----------------------------
---------------------------------3--------------------

Organ Solo over verse Riff,Then:

this chord: 5
            4
            2
            -
            0
            -

Then: e---8-----/11----------\8--------\7-----5---
      B---7-----/10----------\7--------\6-----4---
      G---5-----/8-----------\5--------\4-----2---

Enjoy.
Comments