Red Hot Chili Peppers - Road Trippin Chords & Tabs

 

Road Trippin Chords & Tabs

Red Hot Chili Peppers Chords & Tabs

Version: 3 Type: Tab 1 rating
1 star 2 stars 3 stars 4 stars 5 stars
comments

Road Trippin Tab

   

road_trippin2.tab


A:link {
	FONT-WEIGHT: bold; COLOR: black; TEXT-DECORATION: none
}
A:active {
	FONT-WEIGHT: bold; COLOR: black; TEXT-DECORATION: none
}
A:visited {
	FONT-WEIGHT: bold; COLOR: black; TEXT-DECORATION: none
}
A:hover {
	FONT-WEIGHT: bold; COLOR: black; TEXT-DECORATION: underline
}



By Alex Thomas. Age 15.
Hello my fellow guitarists. This is my first tab so I hope you like it. I have looked at other tab of 
'Road Trippin' and done a mix of all of them as well as adding my own bits to it. I find this 
is a very relaxing song to play so I thought I would share it with you. Have fun!!!!!!!!!!!!!!!!!!

ROAD TRIPPIN

======================================================

-----3--------3---(5-3)3------------------(3/-7--)---
---------0--------0----------5--------4------4-------
---------------------------------0--------0----------
--2--2--2--2--2--2--2--2-----------------------------
--------------------------3--3--3--3--2--2--2--2-----
-----------------------------------------------------


-----3--------3------3-------------------------------
---------0--------0----------5--------4------4-------
---------------------------------0--------0----------
--2--2--2--2--2--2--2--2-----------------------------
--------------------------3--3--3--3--2--2--2--2-----
-----------------------------------------------------

======================================================

[ Tab from: http://www.guitartabs.cc/tabs/r/red_hot_chili_peppers/road_trippin_tab_ver_3.html ]
--0-------0---------------------------7----7---------
-------1------3------3----5------5-----8-----8-------
------------------0-----------0-----7----7-----7-----
-----------------------------------------------------
--0--0--0--0--2--2--2--2--3--3--3--3-----------------
-----------------------------------------------------

======================================================

--3------3-------------------------------------------
------0-------2------2----5------5----7------7-------
-------------------0----------5-----------7----------
--2--2--2--2-----------------------------------------
--------------0--0--0--0--3--3--3--3--5--5--5--5-----
-----------------------------------------------------


--3------3----------------------------5-------5------
------0-------2------2----5------5--------4----------
-------------------0----------5----------------------
--2--2--2--2--------------------------4--4--4--4-----
--------------0--0--0--0--3--3--3--3-----------------
-----------------------------------------------------

==================

---5-----5-----5-----14----11----8----5----2---------
------4-----4--------13----10----7----4----1---------
---------------------14----11----8----5----2---------
-4--4--4--4--4----13----10-----7----4----1---1-------
-----------------------------------------------------
-----------------------------------------------------

======================================================
           slower-
---3-----3-----3-----3-----3--
------0-----0-----0----0------
------------------------------
-2--2--2--2--2--2--2--2--2----
------------------------------
------------------------------


Comments