Red Hot Chili Peppers - Rivers Of Avalon Chords & Tabs

 

Rivers Of Avalon Chords & Tabs

Red Hot Chili Peppers Chords & Tabs

Version: 1 Type: Tab 0 ratings
1 star 2 stars 3 stars 4 stars 5 stars
comments

Rivers Of Avalon Tab

Rivers of Avalon
Red Hot Chili Peppers
The Zypher Song
Submitted by Myles( chicmagntchef14@aol.com )
 
  Play with Flanger                    (Second time only)
e-------------------------------------------------------------------
B-------------------------------------------------------------------
G------------------------------------0-(2)--------------------------
D---------------------------2-0--------2-2--------------------------
A----7-----------3--3----2------2-3--(-3-3-3-)----------------------
E--5--5-7-8--1-0--0--0--3-3------1-1-(--1-1--)----------------------
                                     (^Alternate Ending)
Play this 4x
--------------------------------------------------------------------
---------------------------------------------10-8-8-10-8-8-10-8-----
--9-9-7----------9-9-9-9---7----9-9-9-9---7-------------------------
-------10-9-------------10-------------10---------------------------
-----------10-------------------------------------------------------
--------------------------------------------------------------------
[ Tab from: http://www.guitartabs.cc/tabs/r/red_hot_chili_peppers/rivers_of_avalon_tab.html ]
This is played over the riffs above
--------------------------------------------------------------------
--------------------------------------------------------------------
--------------------------------------------------------------------
--------------------------------------------------------------------
--5(8x)---------3(8x)-----------------------------------------------
--------------------------------5(16x)------------------------------

Solo            (End here and play this second time only)
--------------------------------------------------------------------
--------------------------------------------------------------------
----9-7-5-----------9-7-5-------------------------------------------
--7-------9-7-7-----------9/12--7-----------------------------------
----------------(7)-------------------------------------------------
--------------------------------------------------------------------

End
--------------------------------------------------------------------
--10-8-8(9x)--------------------------------------------------------
-------------10-----------------------------------------------------
--------------------------------------------------------------------
--------------------------------------------------------------------
--------------------------------------------------------------------

I think this pretty much right, but some of it was kinda hard to hear
If you have any questions or request's, E-mail me at...
                 Chicmagntchef14@aol.com
Thanks!
Comments