Red Hot Chili Peppers - Quixoticelixir Chords & Tabs

 

Quixoticelixir Chords & Tabs

Red Hot Chili Peppers Chords & Tabs

Version: 1 Type: Tab

Quixoticelixir Tab

"Quixoticelixer" by Red Hot Chili Peppers
A bonus track from Californication
Guitar part by John Frusciante
Tabbed by Dan Bogosian (UtBDan)
Visit UtBDan's band's website at:
www.utbrocks.com

VERSE: (intro is the first 2 of this)
e---------------------14-14-14--|
B---------------------14-14-14--|
G--7-7-7-7----6-6---------------|
D--9-9-9-9----7-7---------------|
A--9-9-9-9----7-7---------------|
E--7-7-7-7----5-5---------------|

e---------------------14-14-14--|
B---------------------14-14-14--|
G--7-7-7-7----6-6---------------|
D--9-9-9-9----7-7---------------|
A--9-9-9-9----7-7---------------|
E--7-7-7-7----5-5---------------|

e---------------------14-14-14--|
B---------------------14-14-14--|
G--7-7-7-7----6-6---------------|
D--9-9-9-9----7-7---------------|
A--9-9-9-9----7-7---------------|
E--7-7-7-7----5-5---------------|

e-------|
B-------|
G--2~~~-
D--4~~~-
A--4~~~-
E--2~~~-

CHORUS:
e-------------------------|
B-------------------------|
G--------------------9--9-|
D--9-9---4-4---7-7---9--9-|
A--9-9---4-4---7-7---7--7-|
E--7-7---2-2---5-5--------|

e-------------------------|
B-------------------------|
G--------------------9--9-|
D--9-9---4-4---7-7---9--9-|
A--9-9---4-4---7-7---7--7-|
E--7-7---2-2---5-5--------|
[ Tab from: http://www.guitartabs.cc/tabs/r/red_hot_chili_peppers/quixoticelixir_tab.html ]
e-------------------------|
B-------------------------|
G--------------------9--9-|
D--9-9---4-4---7-7---9--9-|
A--9-9---4-4---7-7---7--7-|
E--7-7---2-2---5-5--------|

e--------------------------|
B--------------------------|
G--------------------9~~~~-|
D--9-9---4-4---7~~~--9~~~~-|
A--9-9---4-4---7~~~--7~~~~-|
E--7-7---2-2---5~~~--------|

OUTRO:
e------------------------------------|
B------------------------------------|
G---------------7777---------999-----|
D--4444---7777--7777--7777---999-999-|
A--4444---7777--5555--7777---777-999-|
E--2222---5555--------5555-------777-|

e------------------------------------|
B------------------------------------|
G---------------7777---------999-----|
D--4444---7777--7777--7777---999-999-|
A--4444---7777--5555--7777---777-999-|
E--2222---5555--------5555-------777-|

e------------------------------------|
B------------------------------------|
G---------------7777---------999-----|
D--4444---7777--7777--7777---999-999-|
A--4444---7777--5555--7777---777-999-|
E--2222---5555--------5555-------777-|

e--------------------------------------|
B--------------------------------------|
G---999------999------999------999-----|
D---999-999--999-999--999-999--999-999-|
A---777-999--777-999--777-999--777-999-|
E-------777------777------777------777-|

"LEAD GUITAR" of the OUTRO:
e------------------------------------------|
B-----------5-5-5-5-5-7-7-7-7-7-6-6-6-6-6--|
G-6-6-6-6-6--------------------------------|
D------------------------------------------|
A------------------------------------------|
E------------------------------------------|