Red Hot Chili Peppers - Pretty Little Ditty Chords & Tabs

 

Pretty Little Ditty Chords & Tabs

Red Hot Chili Peppers Chords & Tabs

Version: 3 Type: Bass Tab 0 ratings
1 star 2 stars 3 stars 4 stars 5 stars
comments

Pretty Little Ditty Bass Tab

Pretty Little Ditty
Red Hot Chili Peppers
Mothers Milk

tabbed by TomAnthony

Bass fig.1
                P                         P
  T    T  P P   P      P  T  T    T  P P  P      P  P
G--------------10h12--12-----------------10h12--12-10----
D--------12-X--10--------10---------12-X-10--------------
A--------------------------------------------------------
E-8/10-X---------------------8/10-X----------------------

Bass fig.2
G-------------------------------------------------------------------
G-------------------------------------------------------------------
D------10---------------10--------------10--------------10----------
A---10----10---10----10----10---10---10----10---10---10----10---10--
E-8----------8-----8----------8----8----------8----8----------8-----

Bass fig.3
G---17-----16----14----14----14------17----17----17---19----19----19-
D-----14-----14----14----14----14------17----17---------19----19-----
A-0------0------0-----0-----0------15----15----15---17----17----17---
E--------------------------------------------------------------------
[ Tab from: http://www.guitartabs.cc/tabs/r/red_hot_chili_peppers/pretty_little_ditty_btab_ver_3.html ]
Bass fig.4
G---17-----16----14----14----14------14----14----14---16----16----16-
D-----14-----14----14----14----14------15----15---------17----17-----
A-0------0------0-----0-----0------15----15----15---17----17----17---
E--------------------------------------------------------------------

Bass fig.5
G---6----7----9----7----6---------9----11---12---11---9-----
D-----7----7----7----7----7----10--10----10---10---10--10---
A-0-----0----0----0----0----0---------0----0----0----0----0-
E-----------------------------------------------------------

G---11---12---14---12---11-------11----12---14---12--11-----
D-----12---12---12---12---12-------12----12---12---12--12---
A-0-----0----0----0----0----0---0-----0----0----0----0----0-
E-----------------------------------------------------------

Bass fig.6
G------------                        Order;Bass fig.1 x2
D-11---------                              Bass fig.2 x2
A-0----------                              Bass fig.1 x2
E------------                              Bass fig.3 x3
                                           Bass fig.4 x1
                                           Bass fig.5 x4
                                           Bass fig.6 x1


I credit Martin Peters,
whos tab this is based on
for Bass fig.3 and Bass fig.4.
Bass fig.1,Bass fig.2,Bass fig.5 and Bass fig.6 
are tabbed by myself TomAnthony.
Comments