Red Hot Chili Peppers - Porcelain Chords & Tabs

 

Porcelain Chords & Tabs

Red Hot Chili Peppers Chords & Tabs

Version: 2 Type: Tab 0 ratings
1 star 2 stars 3 stars 4 stars 5 stars
comments

Porcelain Tab

Porcelain by Red Hot Chilli Peppers

E----------------------------------------------------------------
B----2-----------------------------------------------------------
G------2---------------------------------------------------------
D----------------------------------------------------------------
A----------------------------------------------------------------
E----------------------------------------------------------------

E------------0---------------------------------------------------
B----2-2-2-3-----------------------------------------------------
G--------------2-2-2-2-------------------------------------------
D----------------------------------------------------------------
A----------------------------------------------------------------
E----------------------------------------------------------------

E------------0---------------------------------------------------
B----2-2-2-3-----------------------------------------------------
G--------------2-2-2---------------------------------------------
D--------------------4-------------------------------------------
A----------------------------------------------------------------
E----------------------------------------------------------------

E----------------------------------------------------------------
B-------------------0-2------------------------------------------
G----2-----2------2-----2----------------------------------------
D------4-2---4-2-------------------------------------------------
A----------------------------------------------------------------
E----------------------------------------------------------------
[ Tab from: http://www.guitartabs.cc/tabs/r/red_hot_chili_peppers/porcelain_tab_ver_2.html ]
E----2--2--2--4--5-----------------------------------------------
B-------------------5--2----0--2---------------------------------
G----------------------------------------------------------------
D----------------------------------------------------------------
A----------------------------------------------------------------
E----------------------------------------------------------------

E------------0---------------------------------------------------
B----2-2-2-3-----------------------------------------------------
G--------------2-2-2-2-------------------------------------------
D----------------------------------------------------------------
A----------------------------------------------------------------
E----------------------------------------------------------------

E----2--2--2--4--5--7--5--4--2--4-5-----------------------------
B----------------------------------------------------------------
G----------------------------------------------------------------
D----------------------------------------------------------------
A----------------------------------------------------------------
E----------------------------------------------------------------

E----------------------------------------------------------------
B-------------------0-2------------------------------------------
G----2-----2------2-----2----------------------------------------
D------4-2---4-2-------------------------------------------------
A----------------------------------------------------------------
E----------------------------------------------------------------

E----------------------------------------------------------------
B----0-2----0------0-2------0------------------------------------
G--------2----2--------2-----------------------------------------
D----------------------------------------------------------------
A----------------------------------------------------------------
E----------------------------------------------------------------

Repeat from top.

My first tab. Hope it sounds right.
Comments