Red Hot Chili Peppers - Pea Chords & Tabs

 

Pea Chords & Tabs

Red Hot Chili Peppers Chords & Tabs

Version: 4 Type: Bass Tab 0 ratings
1 star 2 stars 3 stars 4 stars 5 stars
comments

Pea Bass Tab

Red Hot Chili Peppers
Pea
One Hot Minute (1995)

Bassist: Michael Balzary (a.k.a. Flea)
Tabber: Emil Gasanov (strat182@hotmail.com)


G|-------------|---------------|---------------|-------------|
D|-3--x-3-3--3-|---------------|---------------|-------------|
A|-------------|-4--x-4-4--x-4-|-3--x-3-3--x-3-|-1--1-1--x-1-|
E|-------------|---------------|---------------|-------------|

G|---------------|-------------|---------------|---------------|
D|-3--x-3-3--x-3-|-------------|---------------|---------------|
A|---------------|-4--x-4-4--4-|-3--x-3-3-x--3-|-1--x-1-1--x-1-|
E|---------------|-------------|---------------|---------------|

G|---------------|-------------|-------------|---------------|
D|-3--x-3-3--x-3-|-------------|-------------|---------------|
A|---------------|-4--x-4-4--4-|-3--x-3-3--3-|-1--x-1-1--x-1-|
E|---------------|-------------|-------------|---------------|

G|---------------|-------------|-------------|---------------|
D|-3--x-3-3--x-3-|-------------|-------------|---------------|
A|---------------|-4--x-4-4--4-|-3--x-3-3--3-|-1-x--1-1--x-1-|
E|---------------|-------------|-------------|---------------|
[ Tab from: http://www.guitartabs.cc/tabs/r/red_hot_chili_peppers/pea_btab_ver_4.html ]
G|-----------------|-3--x-3-3--x-3-|---------------|------------------------|
D|-3/5--x-5-5--x-5-|---------------|-3--x-3-3--x-3-|-3-3--x-3--x-3--x---3-4-|
A|-----------------|---------------|---------------|------------------5-----|
E|-----------------|---------------|---------------|------------------------|

G|---------------|-3--3-3--x-3-|---------------|--------------|
D|-5--x-5-5--x-5-|-------------|-3--x-3-3--x-3-|-3-3--3--3--3-|
A|---------------|-------------|---------------|--------------|
E|---------------|-------------|---------------|--------------|

G|-------------|------------|-------------|------------|
D|-2--x-2-2--2-|----------3-|-2--x-2-2--2-|------------|
A|-------------|-3--x-3-5---|-------------|-3--x-3-5---|
E|-------------|------------|-------------|----------5-|

G|---------------|------------|---------------|----------------|
D|-2--x-2-2--x-2-|----------3-|-2--x-2-2--x-2-|-0--x-0-3-3-x-2-|
A|---------------|-3----3-5---|---------------|----------------|
E|---------------|------------|---------------|----------------|

G|---------------|----------------|----------------|-----------------|
D|-2-2--2-2-2--2-|-0--x-0-3-3-x-2-|--2-2-2-2-2-2-2-|-0-0-0-0-3-3-3-2-|
A|---------------|----------------|----------------|-----------------|
E|---------------|----------------|----------------|-----------------|

G|----------------|-----------------|--------|
D|--2-2-2-2-2-2-2-|-0-0-0-0-3-3-3-2-|--------|
A|----------------|-----------------|--------|
E|----------------|-----------------|--0-0-0-|
Comments