Red Hot Chili Peppers - Otherside Chords & Tabs

 

Otherside Chords & Tabs

Red Hot Chili Peppers Chords & Tabs

Version: 7 Type: Tab 0 ratings
1 star 2 stars 3 stars 4 stars 5 stars
comments

Otherside Tab

INTRO
|-----------------------------------|
|-----------------------------------|
|-----------------------------------|			
|--------7-7-9-7--------------------|
|---7-7-7-------10-7---5-5-5-7------|

   How long
|-----------------------------------------------|
|-----------------------------------------------| Ripetere
|-----------------------------------------------| fino a
|---------------7----7----9--7------------------| quando...
|-7----7----7------------------10-7-----5-5-5-7-|	
|-----------------------------------------------|

   I heard your voice through a    photogragh
|-----0------0------0------0----0----0----0---0---0---0---|
|-----1------1------1------1----1----0----0---0---0---0---|
|-----2------2------2------2----2----0----0---0---0---0---|
|-----2------2------2------2----2----2----2---2---2---2---|
|-----0------0------0------0----0----2----2---2---2---2---|
|-----0------0------0------0----0----0----0---0---0---0---|

   It thought it up it brought up the past
|-----0------0------0------0----0----0----0---0---0---0---|
|-----1------1------1------1----1----0----0---0---0---0---|
|-----2------2------2------2----2----0----0---0---0---0---|
|-----2------2------2------2----2----2----2---2---2---2---|
|-----0------0------0------0----0----2----2---2---2---2---|
|-----0------0------0------0----0----0----0---0---0---0---|

   Once   you   know   you   can  never go back 
|-----0------0------0------0----0----1---1---1---1---1---|
|-----1------1------1------1----1----1---1---1---1---1---|
|-----2------2------2------2----2----2---2---2---2---2---|
|-----2------2------2------2----2----3---3---3---3---3---|
|-----0------0------0------0----0----3---3---3---3---3---|
|-----0------0------0------0----0----1---3---3---3---3---|

   I've got to     take it on the   otherside
|--1---1---1--1--1--0--0--0--0--0---3---3---3---3---3---|
|--1---1---1--1--1--1--1--1--1--1---3---3---3---3---3---|
|--2---2---2--2--2--0--0--0--0--0---0---0---0---0---0---|
|--3---3---3--3--3--2--2--2--2--2---0---0---0---0---0---|
|--3---3---3--3--3--3--3--3--3--3---2---2---2---2---2---|
|--1---1---1--1--1--0--0--0--0--0---3---3---3---3---3---|

       Centuries are what it meant to me
|-----0------0------0----0----0----0----0---0---0---0---|
|-----1------1------1----1----1----0----0---0---0---0---|
|-----2------2------2----2----2----0----0---0---0---0---|
|-----2------2------2----2----2----2----2---2---2---2---|
|-----0------0------0----0----0----2----2---2---2---2---|
|-----0------0------0----0----0----0----0---0---0---0---|

       A   cemetery   where   I    marry the sea
|-----0------0------0------0----0----0----0---0---0---0---|
|-----1------1------1------1----1----0----0---0---0---0---|
|-----2------2------2------2----2----0----0---0---0---0---|
|-----2------2------2------2----2----2----2---2---2---2---|
|-----0------0------0------0----0----2----2---2---2---2---|
|-----0------0------0------0----0----0----0---0---0---0---|

     Stranger things could never    change my mind
|-----0------0------0------0----0----1---1---1---1---1---|
|-----1------1------1------1----1----1---1---1---1---1---|
|-----2------2------2------2----2----2---2---2---2---2---|
|-----2------2------2------2----2----3---3---3---3---3---|
|-----0------0------0------0----0----3---3---3---3---3---|
|-----0------0------0------0----0----1---1---1---1---1---|
[ Tab from: http://www.guitartabs.cc/tabs/r/red_hot_chili_peppers/otherside_tab_ver_7.html ]
   I've got  to    take it on the otherside
|--1---1---1--1--1--0--0--0--0--0---0---0---0---0---0---|
|--1---1---1--1--1--1--1--1--1--1---1---1---1---1---1---|
|--2---2---2--2--2--0--0--0--0--0---2---2---2---2---2---|
|--3---3---3--3--3--2--2--2--2--2---2---2---2---2---2---|
|--3---3---3--3--3--3--3--3--3--3---0---0---0---0---0---|
|--1---1---1--1--1--0--0--0--0--0---0---0---0---0---0---|

   Take it on the otherside
|--0--0--0--0--0---0---0---0---0---0---|
|--1--1--1--1--1---1---1---1---1---1---|
|--0--0--0--0--0---2---2---2---2---2---|
|--2--2--2--2--2---2---2---2---2---2---|
|--3--3--3--3--3---0---0---0---0---0---|
|--0--0--0--0--0---0---0---0---0---0---|

Take it on 	take it on
|--0--0--0--0--0---0---0---0---0---0---|
|--1--1--1--1--1---1---1---1---1---1---|
|--0--0--0--0--0---2---2---2---2---2---|
|--2--2--2--2--2---2---2---2---2---2---|
|--3--3--3--3--3---0---0---0---0---0---|
|--0--0--0--0--0---0---0---0---0---0---|

CHORUS

   How long how 	   long will I 	  slide
|---0---0---0---0--0--1---1---1---1---1---0--0--0--0--0---| 
|---1---1---1---1--1--1---1---1---1---1---1--1--1--1--1---|
|---2---2---2---2--2--2---2---2---2---2---0--0--0--0--0---|
|---2---2---2---2--2--3---3---3---3---3---2--2--2--2--2---|
|---0---0---0---0--0--3---3---3---3---3---3--3--3--3--3---|
|---0---0---0---0--0--1---1---1---1---1---0--0--0--0--0---|

Seperate my     s         i      d       e    I don't
|-3--3--3--3--3--0--0--0--0--0--1--1--1--1--1--0-0-0-0--0--|
|-3--3--3--3--3--1--1--1--1--1--1--1--1--1--1--1-1-1-1--1--|
|-0--0--0--0--0--2--2--2--2--2--2--2--2--2--2--0-0-0-0--0--|
|-0--0--0--0--0--2--2--2--2--2--3--3--3--3--3--2-2-2-2--2--|
|-2--2--2--2--2--0--0--0--0--0--3--3--3--3--3--3-3-3-3--3--|
|-3--3--3--3--3--0--0--0--0--0--1--1--1--1--1--0-0-0-0--0--|

don't believe it's b       a       a       d,SLITmyTHROATits
|-3---3---3---3--3--0--0--0--0--0--1--1--1--1--1-0-0-0-0-0-|
|-3---3---3---3--3--1--1--1--1--1--1--1--1--1--1-1-1-1-1-1-|
|-0---0---0---0--0--2--2--2--2--2--2--2--2--2--2-0-0-0-0-0-|
|-0---0---0---0--0--2--2--2--2--2--3--3--3--3--3-2-2-2-2-2-|
|-2---2---2---2--2--0--0--0--0--0--3--3--3--3--3-3-3-3-3-3-|
|-3---3---3---3--3--0--0--0--0--0--1--1--1--1--1-0-0-0-0-0-|

   all I ever      
|--3---3---3---3---3---|
|--3---3---3---3---3---|
|--0---0---0---0---0---|
|--0---0---0---0---0---|
|--2---2---2---2---2---|
|--3---3---3---3---3---|

Il secondo verso  uguale al primo!!!!! (the 2 verse is same at 1)

Bridge
|--------------------12---12---12------|
|---12---12---12-----------------------|
|--------------------------------------| ripetere	
|--------------------------------------|  x 4		   
|--------------------------------------|
|--------------------------------------|

|----------------------------12-12-12-12-12-12-12H15-|
|10-10-10-10-10-10-10--------------------------------|
|----------------------------------------------------|
|----------------------------------------------------|
|----------------------------------------------------|
|----------------------------------------------------|

|--12-12-12-12-12-12-12h15-12-12-12h-15-12-12-12h15--|
|----------------------------------------------------|
|----------------------------------------------------|
|----------------------------------------------------|
!----------------------------------------------------|
|----------------------------------------------------|
Comments