Red Hot Chili Peppers - Otherside Chords & Tabs

 

Otherside Chords & Tabs

Red Hot Chili Peppers Chords & Tabs

Version: 4 Type: Tab 0 ratings
1 star 2 stars 3 stars 4 stars 5 stars
comments

Otherside Tab

This is the right tab!

Intro:

------------------------------------
------------------------------------
------------------------------------
---------7-7-9-7--------------------
---7-7-7---------10-7---5-5-5-------
------------------------------------

------------------------------------
------------------------------------
------------------------------------
---------7-7-9-7--------------------
---7-7-7---------10-7-7-7-7--5-5-5--
------------------------------------

------------------------------------
------------------------------------
------------------------------------
---------7-7-9-7--------------------
---7-7-7---------10-7-7-7-7--5-5-5--
------------------------------------

------------------------------------
------------------------------------
-------------9-9--------------------
---------7-7-----9-9----------------
---7-7-7----------------------------
------------------------------------



------------------15----------------   x3 Then...
----13----12------------------------
------------------------------------
------------------------------------   When you do this part
------------------------------------   you do it like this: 
------------------------------------   
                                         1st part:x3
                                         2nd part:x1
-----3------------------5-----------     1st part:x3
-----3------------------5-----------     2nd part:x3
-----4------------------6-----------
-----5------------------7-----------   listen to the song
-----5------------------7-----------   and youll know what
-----3------------------5-----------   im talkin about


------------------------------------
------------------------------------
------------------------------------
---------7-7-9-7--------------------
---7-7-7---------10-7-7-7-7--5-5-5--
------------------------------------


------------------------------------
------------------------------------
------------------------------------
---------7-7-9-7--------------------
---7-7-7---------10-7-7-7-7--5-5-5--
------------------------------------


------------------------------------
------------------------------------
-------------9-9-9-9----12-12-12-12-
---------7-7------------------------
---7-7-7----------------------------
------------------------------------

[ Tab from: http://www.guitartabs.cc/tabs/r/red_hot_chili_peppers/otherside_tab_ver_4.html ]
------------------15----------------   1. x3
----13----12------------------------   3. x3
------------------------------------
------------------------------------   
------------------------------------    
------------------------------------  

                                         
-----3------------------5-----------     
-----3------------------5-----------   2. x1  
-----4------------------6-----------   4. x3
-----5------------------7-----------   
-----5------------------7-----------   


------------------------------------
------------------------------------
------------------------------------
---------7-7-9-7--------------------
---7-7-7---------10-7-7-7-7--5-5-5--
------------------------------------


------------------------------------
------------------------------------
------------------------------------
---------7-7-9-7--------------------
---7-7-7---------10-7-7-7-7--5-5-5--
------------------------------------


------------------------------------
------------------------------------
-------------9-9-9-9----12-12-12-12-
---------7-7------------------------
---7-7-7----------------------------
------------------------------------


------------------15----------------   1. x3
----13----12------------------------   3. x3
------------------------------------
------------------------------------   
------------------------------------    
------------------------------------  

                                         
-----3------------------5-----------     
-----3------------------5-----------   2. x1  
-----4------------------6-----------   4. x3
-----5------------------7-----------   
-----5------------------7-----------   


Solo: (Harmonics with distortion)

----12-12-12------------------------  x4
-------------12-12-12---------------
------------------------------------
------------------------------------
------------------------------------
------------------------------------

just distortion now

--------------------12-12-12-12-12-12-12h15
10-10-10-10-10-10-10-----------------------
-------------------------------------------
-------------------------------------------
-------------------------------------------
-------------------------------------------

--12-12-12-12-12-12-12h15-12-12-12h15-12-12-12h15
-------------------------------------------------
-------------------------------------------------
-------------------------------------------------
-------------------------------------------------
-------------------------------------------------

After the solo just keep repeating 12-12-12h15 till 
the song ends. I know this is right. -David
Comments