Red Hot Chili Peppers - Otherside Chords & Tabs

 

Otherside Chords & Tabs

Red Hot Chili Peppers Chords & Tabs

Version: 3 Type: Tab 2 ratings
1 star 2 stars 3 stars 4 stars 5 stars
comments

Otherside Tab

   
Artist:Red Hot Chili Peppers
Song:Otherside




         Chorus

E)------------------------------------------------------------------------------------------
B)------------------------------------------------------------------------------------------
G)-------2-2-4-2-0-----------------2-2-4-2-0------------------------2-2-4-2-0---------------
D)-2-2-2-----------2-0-0-0---2-2-2-----------2-2-2-2-0-0-0----2-2-2-----------2-2-2-2-0-0-0-
A)------------------------------------------------------------------------------------------
E)------------------------------------------------------------------------------------------


E)-------------------------|
B)-------------5-5-5-3-3-3-|
G)-------2-2-2-------------|
D)-2-2-2-------------------|
A)-------------------------|
E)-------------------------|


      Verse
    Am           Em                G            Am
E)--0-0-0-0-0-0-8-0-0-0-0-0-0---15-     -3-3-3-3-3-3--0-0-0-0-0-0--
B)--1-1-1-1-1-1---0-0-0-0-0-0-12---     -0-0-0-0-0-0--1-1-1-1-1-1--
G)--2-2-2-2-2-2---0-0-0-0-0-0------     -0-0-0-0-0-0--2-2-2-2-2-2--
D)--2-2-2-2-2-2---2-2-2-2-2-2------     -0-0-0-0-0-0--2-2-2-2-2-2--
A)--0-0-0-0-0-0---2-2-2-2-2-2------     -2-2-2-2-2-2--0-0-0-0-0-0--
E)----------------0-0-0-0-0-0------ *3  -3-3-3-3-3-3---------------   

        Chorus
[ Tab from: http://www.guitartabs.cc/tabs/r/red_hot_chili_peppers/otherside_tab_ver_3.html ]
E)------------------------------------------------------------------------------------------
B)------------------------------------------------------------------------------------------
G)-------2-2-4-2-0-----------------2-2-4-2-0------------------------2-2-4-2-0---------------
D)-2-2-2-----------2-0-0-0---2-2-2-----------2-2-2-2-0-0-0----2-2-2-----------2-2-2-2-0-0-0-
A)------------------------------------------------------------------------------------------
E)------------------------------------------------------------------------------------------

E)-------------------------|
B)-------------5-5-5-3-3-3-|
G)-------2-2-2-------------|
D)-2-2-2-------------------|
A)-------------------------|
E)-------------------------|

   Verse
    Am           Em                G            Am
E)--0-0-0-0-0-0--0-0-0-0-0-0      -3-3-3-3-3-3--0-0-0-0-0-0--
B)--1-1-1-1-1-1--0-0-0-0-0-0      -0-0-0-0-0-0--1-1-1-1-1-1--
G)--2-2-2-2-2-2--0-0-0-0-0-0      -0-0-0-0-0-0--2-2-2-2-2-2--
D)--2-2-2-2-2-2--2-2-2-2-2-2      -0-0-0-0-0-0--2-2-2-2-2-2--
A)--0-0-0-0-0-0--2-2-2-2-2-2      -2-2-2-2-2-2--0-0-0-0-0-0--
E)---------------0-0-0-0-0-0  *3  -3-3-3-3-3-3---------------   


    
        Solo 


E)------------------------------------------------------------------------12-12-12-15-12-12-12-15-12-12-15-12-|
B)--0-0-0-12-12-12-0-0-0-12-12-12-0-0-0-12-12-12-0-0-0-12-12-12--10-10-10-------------------------------------|
G)------------------------------------------------------------------------------------------------------------|
D)------------------------------------------------------------------------------------------------------------|
A)------------------------------------------------------------------------------------------------------------|
E)------------------------------------------------------------------------------------------------------------|




			
Comments