Red Hot Chili Peppers - Other Side Chords & Tabs

 

Other Side Chords & Tabs

Red Hot Chili Peppers Chords & Tabs

Version: 1 Type: Tab 4 ratings
1 star 2 stars 3 stars 4 stars 5 stars
comments

Other Side Tab

Song Title : Other Side
Album : Californication
Artist : Red Hot Chili Peppers
Transcribed by : Brian S
Email me at : Blinkx1115@aol.com


Key :

v - vibrato
B - full bend 
% - repeat
/ - slide to


Finally a tab thats right!!!!

Intro :

    v       v
E-|---------------------------------|---------------------------------
B-|---------------------------------|---------------------------------
G-|---------------------------------|------------------9-7-5----------
D-|-------7-7----9-7-5--------------|-% than-------7-7----------------
A-|-7-7-7--------------7~-7-7-5-5-5-|--------7-7-7--------------------
E-|---------------------------------|---------------------------------
				      drums :	   
[ Tab from: http://www.guitartabs.cc/tabs/r/red_hot_chili_peppers/other_side_tab.html ]
E-|-3~~~-15~/0----------------------|---------------------------------
B-|---------------------------------|---------------------------------
G-|---------------------------------|---------------------------------
D-|---------------------------------|---------------------------------
A-|---------------------------------|---------------------------------
E-|---------------------------------|---------------------------------
          a few times than back to intro


   first solo : heavy distortion

E-|-0-0-0~~-7-7-7~~-----------------
B-|-5-5-5~~-------------------------
G-|-------------------------%%------     (tear it down now...)
D-|---------------------------------
A-|---------------------------------
E-|---------------------------------

    Than Frusciante does his 2nd solo screwin around w/ octaves

E-|--5-5~~~-/12~~~-12-12-12-15-12-12~-12-12-12-15-12-12-15-12~~~-----
B-|--5-5~~~----------------------------------------------------------
G-|------------------------------------------------------------------
D-|------------------------------------------------------------------
A-|------------------------------------------------------------------
E-|------------------------------------------------------------------   
Comments