Red Hot Chili Peppers - My Friends Chords & Tabs

 

My Friends Chords & Tabs

Red Hot Chili Peppers Chords & Tabs

Version: 2 Type: Tab 0 ratings
1 star 2 stars 3 stars 4 stars 5 stars
comments

My Friends Tab

   
My Friends
Red Hot Chili Peppers 
From the album One Hot Minute

tuning 1/2 step down
Intro (let all notes ring):

    D             Fmaj7       G           C
e:----------0-------------0------------------------|
B:----------3-------------3------------------------|
G:------2-----------0-2---------------0-------020-0|
D:--0-----------0-3---------3-----0---------02---2-|
A:----------------------------2---------2-3--------|
E:-------------------------------------------------|


    D             Fmaj7       C           G
e:----------0-------------0------------------------|
B:----------3-------------3------------------------|
G:------2-----------0-2-------------0-2---------0--|   (repeat and
D:--0-----------0-3---------3---0-2----------0-----|    improvize 2x)
A:----------------------------3---------3-2--------|
E:-------------------------------------------------|

Chorus (chords only, get the rhythm from the album)

    C   Am  C   D   Am
e:---------------------|
B:--1---1---1---3---1--|
G:--0---2---0---0---2--|
D:--2---2---2---4---2--|
A:--3---0---3---5---0--|
E:---------------------|

Endpart (chords only):

    E   D   C#  C   G  F#5  F5
e:-----------------------------|
B:--7---5---4---3--------------|
G:--9---7---6---5--------------|
D:--9---7---6---5---5---4---3--|
A:--7---5---4---3---5---4---3--|
E:------------------3---2---1--|


Lyrics:

My friends are so depressed
I feel the question of your loneliness
Confide 'cause I'll be on your side
You know I will you know I will

Ex girlfriend called me up
Alone and desperate on the prison phone
They want to give her seven years
For being sad
[ Tab from: http://www.guitartabs.cc/tabs/r/red_hot_chili_peppers/my_friends_tab_ver_2.html ]
Chorus:
I love all of you
Hurt by the cold
So hard and lonely too
When you don't know yourself

My friends are so distressed
And standing on the brink of emptiness
No words I know of to express
This emptiness

chorus

Imagine me tauhgt by tragedy
Release is peace
I heard a little girl
And what she said
Was something beautiful
To give your love
No matter what she said

chorus

------------------------------------------------------------------------
Subject: Red Hot Chili Peppers/ My friends Solo

This is the solo for My_Friends off One Hot Minute.
On the record these Chords are played underneath  the solo to the verse rythym.

         D/F#   Fmaj7   G    C
     ----0--------0-----3----0----------------
     ----3--------3-----3----1----------------
     ----2--------2-----0----0---------------
     ----0--------3-----0----2----------------
     -------------0-----2----3---------------
     -------------------3------------------

Solo:
     --------------------------------------------------------------------
     --------------------------------------------------------------------
     --------------------------------------------------------------------
     --------------------------------------------------------------------
     --9--9--9--9--5h7--5/3--3h5--3/2--2--2--2h3/5-5-5-5-----------------
     --------------------------------------------------------------------

     --------------------------------------------------------------------
     --------------------------------------------------------------------
     --------------------------------------------------------------------
     ---------------7h9--7/5--5--5--5--5/12------------------------------
     --9--9--9--9--------------------------------------------------------
     --------------------------------------------------------------------
Comments