Red Hot Chili Peppers - Minor Thing Chords & Tabs

 

Minor Thing Chords & Tabs

Red Hot Chili Peppers Chords & Tabs

Version: 8 Type: Tab 0 ratings
1 star 2 stars 3 stars 4 stars 5 stars
comments

Minor Thing Tab

-----------------------------------------------------------------------------
                   RED HOT CHILI PEPPERS - MINOR THING
-----------------------------------------------------------------------------

tabbed by: Stellar Legs 
e-mail: uncle_stellar@hotmail.com

Standard tuning

Intro/Verse (clean, sharp-sounding)
e--2-2-2-2-2-2-2-2-2---9---5-5-5-5-5---9-9-9-9-9--0--5-5-5---|
B--2-2-2-2-2-2-2-2-2---9---7-7-7-7-7---7-7-7-7-7--0--7-7-7---|
G--2-2-2-2-2-2-2-2-2---9---7-7-7-7-7---7-7-7-7-7-----7-7-7---|
D--------------------------0-0-0-0-0---0-0-0-0-0-------------|
A------------------------------------------------------------|
E------------------------------------------------------------|


e---9--9--9--9---12---14-14-14-14-14-14-14-14---|
B--10-10-10-10---12---14-14-14-14-14-14-14-14---|
G---9--9--9--9---12---14-14-14-14-14-14-14-14---|   X 2
D-----------------------------------------------|
A-----------------------------------------------|
E-----------------------------------------------|
  "Oooh  ooh oooohhh.........."
[ Tab from: http://www.guitartabs.cc/tabs/r/red_hot_chili_peppers/minor_thing_tab_ver_8.html ]
e--14-14-14-14-14-14-14-14-14-14---17-17-17-17--19-19-19-19---|
B--14-14-14-14-14-14-14-14-14-14---17-17-17-17--19-19-19-19---|
G--14-14-14-14-14-14-14-14-14-14------------------------------|
D-------------------------------------------------------------|
A-------------------------------------------------------------|
E-------------------------------------------------------------|
 Repeat twice. Four times the second time around.

Solo (distortion)
e---14^^^-------------------------------------------------|
B-----------14-17------------14-----------14-17-----------|
G------------------13^-11~-------13^-11----------13^-11---|
D---------------------------------------------------------|
A---------------------------------------------------------|
e---------------------------------------------------------|

e---------------------------------|
b--14-----------------------------|
g------13^--11--13--9--11--7-7-7--|
d---------------------------------|
a---------------------------------|
e---------------------------------|

Repeat verses and stuff.

Outro
e---------------------------------------------|
B------------5-7--------------------5---------|
G--4~---4-4-------6~------4~---4-4-----7^--6--|
D---------------------------------------------|
A---------------------------------------------|
e---------------------------------------------|

e----------------------------------------|
B------------5-7--------------5----------|
G--4~---4-4-------6~------4~-----7^--6---|
D----------------------------------------|
A----------------------------------------|
e----------------------------------------|
 Repeat all of this a couple more times.


Fin.
Comments