Red Hot Chili Peppers - Minor Thing Chords & Tabs

 

Minor Thing Chords & Tabs

Red Hot Chili Peppers Chords & Tabs

Version: 6 Type: Tab 0 ratings
1 star 2 stars 3 stars 4 stars 5 stars
comments

Minor Thing Tab

   
Song:   Minor Thing
Artist: Red Hot Chili Peppers
Album:  By The Way

Transcriber: Igor Dedic
             Novi Sad
             Yugoslavia
     E-mail: dedicbis@neobee.net

  A6 D  D6 D+7 A6! C6! D6! F#m     E6
e-2--5--7--9---14--17--19--2----9--9----
B-2--7--7--7---14--17--19--2----10-9----
G-2--7--7--7--(14)(17)(19)-2-or-11-9----
D-2--7--7--7--(14)(17)(19)-4----11-9----
A-x--x--x--x---x---x---x---4----9--x----
E-x--x--x--x---x---x---x---2----x--x----


A6           
I change the key from C to D

                   E6     D
You see to me itís just a minor thing

   D+7    D6
He knows everything

A6
To raedjust youíve got to trust

                     E6     D
That all the fuss is just a minor thing

   D+7    D6
He knows everything

F#m
Itís just a minor thing

          E6
And Iím a minor king

  D+7    D6
He knows everything


A       E6  D6   
UUUUUUU UUU UUUUUUU  x2



A6!
Youíve got your bit part, Mozart
         C6!  D6!
Hot dart acceleration
A6!
Pop art, pistol chasiní
          C6!   D6!
Cat fight intimidation


A6  E6  D  D+7  D6
OOOOOO......


To read a mind youíve got to
Redefine the line to make your circle sing
He knows everything
You make a sound
The spell is bound to come around
Itís just a minor thing
He knows everything
Itís just a minor thing
And Iím a minor king
He knows everything
[ Tab from: http://www.guitartabs.cc/tabs/r/red_hot_chili_peppers/minor_thing_tab_ver_6.html ]
Youíve got your bit part, Mozart
Hot dart acceleration
Pop art, pistol chasiní
Cat fight intimidation
All out interfacing
Black star motivation
Vampire sugar junkie
Data basiní infiltration


SOLO 1 (1:45 Ė 2:00)

e-14~ ~ ~ --------------------------------------------------12--
B---------10--12----------------------------13-----------13-----
G----------------(11)/13--11-11~ ~ ~--11-11----13^-11-----------
D---------------------------------------------------------------
A---------------------------------------------------------------
E---------------------------------------------------------------

e-------------------------------------------------------
B-------13----------------------------------------------
G-11-------13^----11------13-----9------11------6~ ~ ~--
D-------------------------------------------------------
A-------------------------------------------------------
E-------------------------------------------------------


SOLO 2 (2:31)

e-----------------------------|------------------------- \
B------------5--7-------------|-------------5---3^------ |
G-4------4-4--------6---------|-4-------4-4--------6---- |
D-----------------------------|------------------------- |
A-----------------------------|------------------------- |
E-----------------------------|------------------------- |
                                                         | x2 
e-----------------------------|------------------------- |
B------------5--7-------------|-------------5---3^------ |
G-4------4-4--------6---------|-4------------------6---- |
D-----------------------------|------------------------- |
A-----------------------------|------------------------- |
E-----------------------------|------------------------- /

Youíll have to listen to the song while you play to
figure out the rhytm and how to change the chords.

Minor thig is my favorite song from By The Way and 
I hope itíll be the single one day...

This is the first version of my Minor Thing Tab,
I thik itís good, but please send to me your
corrections and sugestions!!

 BYE!!!
Comments