Red Hot Chili Peppers - Minor Thing Chords & Tabs

 

Minor Thing Chords & Tabs

Red Hot Chili Peppers Chords & Tabs

Version: 4 Type: Tab 0 ratings
1 star 2 stars 3 stars 4 stars 5 stars
comments

Minor Thing Tab

   
Red Hot Chili Peppers
"Minor Thing"
By The Way
Tabbed by kyle


Intro/Verse:
F#m-C#m-D

then play occasionally
A-E-D

then play:

E -14-14-14-14-14-14-14-14-14-14-14-14-14-14-14-
b -14-14-14-14-14-14-14-14-14-14-14-14-14-14-14-
g ----------------------------------------------

E -17-17-17-17-17-17-17-17-19-19-19-19-19-19-19-
b -17-17-17-17-17-17-17-17-19-19-19-19-19-19-19-
g ----------------------------------------------

Solo Bit: Behind Verse Progression
e -14------------------------------------------------------
b -17^(19)--------14---17---------------------14-----------
g -------------------------------------------------14------
d -------------------------16^(18)---16-----------------16-
a ---------------------------------------------------------
e ---------------------------------------------------------
[ Tab from: http://www.guitartabs.cc/tabs/r/red_hot_chili_peppers/minor_thing_tab_ver_4.html ]
e ---------------------------------------------------------
b --14---17---------14-------------------------------------
g ---------------------------------------------------------
d -----------16----------16^(18)---16----18---14---16------
a ------------------------------------------------------16-
e ---------------------------------------------------------

Outro Bit:
Other Guitar plays E*-F#m Progression

  Repeat a bunch of times
e ---------------------------------------------------------
b --------5---7------------------------------5-------------
g -4--------------6------------4---------4------6^(7)(6)---
d ---------------------------------------------------------
a ---------------------------------------------------------
e ---------------------------------------------------------

Chords:
E-[x7999x]
E*-[022100]
F#m-[244222]
A-[577655]
C#m-[46654]
D-[X57775]

E ---4^(5)(7) bend first note to sound as second note, then third note


and thats it. bye. :-)
Comments