Red Hot Chili Peppers - Minor Thing Chords & Tabs

 

Minor Thing Chords & Tabs

Red Hot Chili Peppers Chords & Tabs

Version: 1 Type: Tab 0 ratings
1 star 2 stars 3 stars 4 stars 5 stars
comments

Minor Thing Tab

Song: Minor Thing
Artist: Red Hot Chilli Peppers
Album: By the Way

Tabbed by Philip Johnson
-------------------------------------------------------------------                                                               

Part 1 (Verse)

E||--2--------9-----------5h9---|--------------9---------7--------|
B||--5--------9-----------7-----|--------------10--------9--------|
G||--x--------9-----------7-----|--------------9---------9--------|
D||--2--------9-----------7-----|--------------11--------9--------|
A||--4--------11----------5-----|--------------12--------7--------|
E||--2--------9-----------x-----|--------------9---------x--------|


[ Tab from: http://www.guitartabs.cc/tabs/r/red_hot_chili_peppers/minor_thing_tab.html ]
Part 2 (Transition Between the Verse and The Chorus)
 
E||--9--------7-------5---|
B||--10-------9-------7---|
G||--9--------9-------7---|
D||--11-------9-------7---|
A||--12-------7-------5---|
E||--9--------x-------x---|



Part 3 (Chorus)                                                                    

Strum evenly and change chords along with bass changes.

E||--14-------17--------19---|
B||--14-------17--------19---|
G||--14-------17--------19---|
D||--------------------------|
A||--------------------------|
E||--------------------------|



Part 4 (Outro)

Strum as a backround for the solo.

E||--12-------14---|
B||--12-------14---|
G||----------------|
D||----------------|
A||----------------|
E||----------------|


Any questions or comments? Email me at guitarplayingfool@charter.net
Comments