Red Hot Chili Peppers - Minor Thing Chords & Tabs

 

Minor Thing Chords & Tabs

Red Hot Chili Peppers Chords & Tabs

Version: 3 Type: Bass Tab 0 ratings
1 star 2 stars 3 stars 4 stars 5 stars
comments

Minor Thing Bass Tab

Tabbed By Louis P(z)

I'm from San Antonio Texas and I don't wear Cowboy boots and Cowboy
Hats.
This is the way I play it

Intro
g---------------------------------------------------------------------
d-4-4---4-4-4---4--4---7----------------------------------------------
a-------------------------5-5-55---5-55--5----------------------------
e---------------------------------------------------------------------

Chorus
g--------------------------- ||
d-7--7--7-7---9-------------*||
a----------------5-5-55-5---*||
e--------------------------- ||
[ Tab from: http://www.guitartabs.cc/tabs/r/red_hot_chili_peppers/minor_thing_btab_ver_3.html ]
g---------------------------------------------------------------------
d---------------------------------------------------------------------
a---------------------------------------------------------------------
e-2---2-2-2----2-2-2----2-2-2----5--5-5-55-5-7--7-77-7----------------
  T   T P T    T P T    T P T    

g---------------------------------------------------------------------
d---------------------------------------------------------------------
a---------------------------------------------------------------------
e-2---2-2-2----2-2-2---2-2-2---5-5-5-5-5-55-44-444--------------------
  T   T P T    T P T   T P T 

That's most of the song.
Comments