Red Hot Chili Peppers - Mellowship Slinky In B Major Chords & Tabs

 

Mellowship Slinky In B Major Chords & Tabs

Red Hot Chili Peppers Chords & Tabs

Version: 5 Type: Tab 0 ratings
1 star 2 stars 3 stars 4 stars 5 stars
comments

Mellowship Slinky In B Major Tab

   
Red Hot Chili Peppers
Mellowship Slinky In B Major
By Anthony Kiedis, Flea, John Frusciante and Chad Smith
Blood Sugar Sex Magik (1991)

Tabbed by: Nathan Coughlan	

Tuning: Standard

Intro:
e|------------------------------------------------|
B|------------------------------------------------|
G|------------------------------------------------|
D|------------------------------------------------|
A|--4---3---2---5-6-7----------5---7--7--5--7-----|
E|--------------------0-0---/7---7----------------|

e|------------------------------------------------|
B|------------------------------------------------|
G|------------------------------------------------|
D|------------------------------------------------|
A|--4---3---2---5-6-7----------5---7----------5---|
E|--------------------0-0---/7---7--0---0---7---7-|

Verse:
e|------------------------------------|------------------------------------|
B|-12--10--9--10--9-------------------|-12--10--9--10--9-------------------|
G|-------------------7b---------------|---------------------7--------------|
D|------------------------9~~---------|--------------------------9--8--7---|
A|------------------------------------|------------------------------------|
E|------------------------------------|------------------------------------|

I've got a mellowship, I've got a fellowship....
e|------------------------------------|------------------------------------|
B|-12--10--9--10--9-------------------|-12--10--9--10--9-------------------|
G|-------------------7b---------------|---------------------7--------------|
D|------------------------9~~---------|--------------------------9--8--7---|
A|-----------------------------5b-----|------------------------------------|
E|--------------------------------5~~-|------------------------------------|

e|------------------------------------|------------------------------------|
B|-12--10--9--10--9-------------------|-12--10--9--10--9-------------------|
G|-------------------7b---------------|-------------------7b---------------|
D|------------------------9~~---7-----|------------------------9--8--7-----|
A|--------------------------------5~~-|------------------------------------|
E|------------------------------------|------------------------------------|

e|---------------------------|---10b12----12b14r12p10b12----------|
B|-12--10--9--10--9----------|------------------------------------|
G|-------------------7b------|------------------------------------|
D|---------------------------|------------------------------------|
A|---------------------------|------------------------------------|
E|---------------------------|------------------------------------|
[ Tab from: http://www.guitartabs.cc/tabs/r/red_hot_chili_peppers/mellowship_slinky_in_b_major_tab_ver_5.html ]
e|------------------------------------|------------------------------------|
B|-12--10--9--10--9-------------------|------------------------------------|
G|-------------------7b---------------|------------------------------------|
D|------------------------9--8--7-----|----------------------7--8----------|
A|------------------------------------|--/9--8--7--5--7--/9----------------|
E|------------------------------------|------------------------------------|

Bridge:
I'm so in love yes with an artist......
e|-7--x-7---x-7-7---7---x-9-9-9-9-|-7--x-7---x-7-7---7---x-6-6-6-6-|
B|-7--x-7---x-7-7---7---x-9-9-9-9-|-7--x-7---x-7-7---7---x-6-6-6-6-|
G|-7--x-7---x-7-7---7---x-9-9-9-9-|-7--x-7---x-7-7---7---x-6-6-6-6-| X3
D|--------------------------------|--------------------------------|
A|--------------------------------|--------------------------------|
E|--------------------------------|--------------------------------|

e|-7--x-7---x-7-7---7---x-9-9-9-9-|-------------------------|
B|-7--x-7---x-7-7---7---x-9-9-9-9-|-------------------------|
G|-7--x-7---x-7-7---7---x-9-9-9-9-|------------------/9-----|
D|--------------------------------|----9---8---7-----/9-----|
A|--------------------------------|------------------/9---5-|
E|--------------------------------|-------------------------|

Chorus:
Good God, where's my sleigh now.....
e|------------------------------|-------------------------------|
B|------------------------------|-------------------------------|
G|------------------------------|-------------------------------|
D|--------------------5---------|----------------------5--------|X4
A|-7-5-7------5-7-5-7-----7-----|-4-5-4-5------4-5-4-5-----4--5-|
E|------------------------------|-------------------------------|

e|-------------------------------|------------------------|
B|-------------------------------|-10----9----8-----------|
G|-------------------------------|-10----9----8-----------|
D|-------------------------------|-9-----8----8-----------|
A|-5-4-5-4----5-4-5-4----5-4-5-4-|-10----9----8------5----|
E|-------------------------------|------------------------|

Solo:
e|-0-0-0-0-0-0-0-0-0-0--0--0--0---0--|------------------------------------|
B|-0-0-0-0-0-0-0-0-0-0--0--0--0---0--|------0------0------0------0------0-|
G|-4-4-4-7-7-7-9-9-9-11-11-13-14--16-|-2s4----2s4----2s4----2s4----2s4--0-|
D|-----------------------------------|------------------------------------|X2
A|-----------------------------------|------------------------------------|
E|-----------------------------------|------------------------------------|

e|----------------------------------|-------------------------------------|
B|----------------------------------|-------------------------------------|
G|----------------------------------|-------------------------------------|X2
D|---12\10---10\9---9\7---7\5---5/7-|-------------------------------------|
A|-0-------0------0-----0-----0-----|------0------0------0------0------0--|
E|----------------------------------|-3s5----3s5----3/5----3/5----3/5-----|
   let ring - - - - - - - - - - - - |


| /  slide up
| \  slide down
| h  hammer-on
| p  pull-off
| ~  vibrato
| +  harmonic
| x  Mute note
=============================================================================
Comments