Red Hot Chili Peppers - Mellowship Slinky In B Major Chords & Tabs

 

Mellowship Slinky In B Major Chords & Tabs

Red Hot Chili Peppers Chords & Tabs

Version: 2 Type: Tab 0 ratings
1 star 2 stars 3 stars 4 stars 5 stars
comments

Mellowship Slinky In B Major Tab

   
Mellowship Slinky in B Major   				Tabbed by Tudisco Fabrizio, 14
Red Hot Chili Peppers					Brescia, Italy on 27th July 2001
Blood Sugar Sex Magic
Warner Bros. Records 1992

Please Note:
This file is the author's own work and represents their interpretation of the song.
You may only use this file for private study, scholarship, or research.

This song is difficult if you are a novice because you must play it very fast...
It is 100% right I guarantee.
And now the music...
/=slide
d=drag
v=vibrato
h=hammer
p=push
E:--------------------------------------------------------------------------------------------------------------- -----|
B: --------------------------------------------------------------------------------------------------------------------|
G: ---6----5----4----7----8----9--------------------7----------9----9----7-----9---------------------------------|
D: ---6----5----4----7----8----9----2----2----9----7----9----9----9----7-----9---------------------------------|
A: ---4----3----2----5----6----7----2----2----9----5----9----7----7----5-----7---------------------------------|
E: ------------------------------------0----0----7----------7--------------------------------------------------------|
[ Tab from: http://www.guitartabs.cc/tabs/r/red_hot_chili_peppers/mellowship_slinky_in_b_major_tab_ver_2.html ]
E:--------------------------------------------------------------------------------------------------------------- -----|
B: --------------------------------------------------------------------------------------------------------------------|
G: ---6----5----4----7----8----9--------------------7----------9--------------------7-----------------------------|
D: ---6----5----4----7----8----9----2----2----9----7----9----9----2----2----9----7----9-----------------------|
A: ---4----3----2----5----6----7----2----2----9----5----9----7----2----2----9----5----9-----------------------|
E: ------------------------------------0----0----7----------7---------0----0----7----------7-----------------------|

E:--------------------------------------------------------------------------------------------------------------- -----|
B: --------------------------------------------------------------------------------------------------------------------|
G: ---6----5----4----7----8----9--------------------7----------9----9----7-----9---------------------------------|
D: ---6----5----4----7----8----9----2----2----9----7----9----9----9----7-----9---------------------------------|
A: ---4----3----2----5----6----7----2----2----9----5----9----7----7----5-----7---------------------------------|
E: ------------------------------------0----0----7----------7--------------------------------------------------------|

E:--------------------------------------------------------------------------------------------------------------- -----|
B: --------------------------------------------------------------------------------------------------------------------|
G: ---6----5----4----7----8----9--------------------7----------9--------------------7-----------------------------|
D: ---6----5----4----7----8----9----2----2----9----7----9----9----2----2----9----7----9-----------------------|
A: ---4----3----2----5----6----7----2----2----9----5----9----7----2----2----9----5----9-----------------------|
E: ------------------------------------0----0----7----------7---------0----0----7----------7-----------------------|

This is all.
Thanks.
Tudisco Fabrizio.
Comments