Red Hot Chili Peppers - Me And My Friends Chords & Tabs

 

Me And My Friends Chords & Tabs

Red Hot Chili Peppers Chords & Tabs

Version: 3 Type: Bass Tab 0 ratings
1 star 2 stars 3 stars 4 stars 5 stars
comments

Me And My Friends Bass Tab

Red hot chili peppers
Me & My Friends
[WARNER BROS]
Original Music by Lyrics by : Anthony Kiedis, Flea, Dave Navarro & Chad Smith

Please send any suggestion to haddadi@enscpb.u-bordeaux.fr
	Fabien HADDADI, January 1996

Symbols : / : slide up
	  \ : slide down
	  h : hammer on
	 lr : let ring,     lr4 : let ring 4 beats
	  r : rest 1/4 beat, r2 : rest 2 beats

First tab was by Haddadi Fabien which was very good.
Little corrections and additions by MEELIS SAARD

	beat = 76      
    G  ||---------------------------------|--------------------------------|
    D 4||--------------15h17--------15\---|12----------12--15----------15--|
    A 4||---------------------------------|--------------------------------|
    E  ||---------------------------------|--------------------------------|
	
	|---------------------------------|--------------------------------|
	|----------------10-----------14--|12----------14--15----------15--|
	|14----------14-------------------|--------------------------------|
	|---------------------------------|--------------------------------|
[ Tab from: http://www.guitartabs.cc/tabs/r/red_hot_chili_peppers/me_and_my_friends_btab_ver_3.html ]
	|--------------------------------|--------------------------------|
	|17------------------------------|----------------------15-----15-|
	|------------------10-------8----|--------------------------------|
	|--------------------------------|-10-----------------------------|
					       My friends are so depressed
   
	|--------------------------------|--------------------------------|
	|-17----------------10-------10--|12----------14--15----------15--|
	|-------------10/12-------12-----|--------------------------------|
	|--------------------------------|--------------------------------|
		     I    feel      the   question of your loneli-ness
        
	|--------------------------------|--------------------------------|
	|17------------------------------|------------12--15---------15---|
	|--------------------10-----8----|------------------------17------|
	|--------------------------------|10------------------------------|
				   Con -  fide cause I'll be on your side
       
	|-------------17-----------------|--------------------------------|
	|17------------------------------|12------------------------15----|
	|--------------------------------|--------------------------------|
	|--------------------------------|--------------------------------|
		     you know I will		     you  know I will
        
	|--------------------------------|--------------------------------|
	|--------------------------------|----------------3-----------3---|
	|10------------------0---3---4---|5-----------5-----------------5-|
	|--------------------------------|--------------------------------|
					      X - girlfriend called me up
  
	|--------------------------------|--------------------------------|
	|--------------------------------|--------------------------------|
	|----------------3-r-3-------3-4-|5-----------7---8-----------8-9-|
	|3-----------3-----------r-5-----|--------------------------------|
		      A- lone       and   desperate on the prison phon
	|--------------------------------|--------------------------------|
	|----------------10---9----7-----|------------------------------3-|
	|10----------10------------------|5-----------5---8-----------5---|
	|--------------------------------|--------------------------------|
				   They   want to give her 7 years	
        
	|--------------------------------|--------------------------------|
	|--------------------------------|----------------5---------------|
	|----------------3---------------|3-----------3-------------------|
	|3-----------3-------------------|--------------------------------|
		     For be-ing  sad		  I       love 
     
	|--------------------------------|--------------------------------|
	|-------------7---------7--------|----------------------------7---|
	|0-------0---------0---------0---|3-----------3---5------5--3-----|
	|--------------------------------|--------------------------------|
	 all     of  you			  hurt    by      the co -
     
	|--------------------------------|--------------------------------|
	|----------------7------7--------|----------------5---------------|
	|--------------0---0-------------|3-----------3---------------3---|
	|--------------------------------|--------------------------------|
	  ld					  So  	  ha -rd  & 
       
	|--------------------9---9\------|--------------------------------|
	|--------------------------------|-------------------7------------|
	|0-------------------------------|3---------3/---5-------5---0-lr-|
	|--------------------------------|--------------------------------|
         lo- ne -ly too			  when    you     don't know
      
	|------------------------14141414|--------------------------------|
	|--------------------------------|------------2---3-----------3-4-|
	|(lr4)---------------------------|5-------5-----------------------|
	|--------------------------------|--------------------------------|
	 your - se - lf			       My friends are so distressed
       
	|--------------------------------|--------------------------------|
	|5-----------5-------------------|------------7---------------3---|
	|----------------3-----------3-4-|5---------------8-------------5-|
	|--------------------------------|--------------------------------|
		     and stand - ing      on the  brink of emptiness
     
	|--------------------------------|--------------------------------|
	|--------------------------------|--------------------------------|
	|----------------3---3-5/9---7---|5-------5---8---------------3-5-|
	|3-----------3-------------------|--------------------------------|
				      No  words ...     I know of to ex -
        
	|--------------------------------|--------------------------------|
	|--------------------------------|----------------5---------------|
	|------------3---3---------------|3-----------3-------------------|
	|3-------------3-----------------|--------------------------------|
	 press this emptiness		  I	  love 		  all
      
	|--------------------------------|------------------------7-------|
	|-------------7---------7--------|--------------------7-------7---|
	|0-------0---------0---------0---|3-----------3---5---------------|
	|--------------------------------|--------------------------------|
	 of you				  Hurt    by      the   cold
       
	|--------------------------------|--------------------------------|
	|---7-----------7-------7--------|----------------5---------------|
	|--------------------------------|3-----------3---------------3---|
	|5-----5-------------5-----------|--------------------------------|
					  	So  	  ha -rd   &
      
	|--------------------------------|------------------------7-------|
	|---------------7---------7------|--------------------7-----------|
	|0---------0---------0---------0-|3-------3-------5-----------0-lr|
	|--------------------------------|--------------------------------|
	 lo- ne -ly too			  When    you     don't know
       
	|--------------------------------|--------------------------------|
	|--------------------------------|--------------------------------|
	|--------------------------------|5-------5---7---8-----------8-9-|
	|--------------------------------|--------------------------------|
	 your  - self
        
	|--------------------------------|--------------------------------|
	|---------------9--10-----7------|--------------------------------|
	|10---------10--------------10-8-|------------7---8-----------8h9-|
	|--------------------------------|10------------------------------|

        
	|--------------------------------|--------------------------------|
	|--------------------------------|--------------------------------|
	|----2-------2---3-3-3-3---0-3-4-|5-------5---7---8-----------8h9-|
	|3-----3---3---------------------|--------------------------------|

        
	|--------------------------------|--------------------------------|
	|--------------------------------|--------------------------------|
	|--------------2-3---3-3---0-3-4-|5-------5---7---8-----------8h9-|
	|3-----------3-------------------|--------------------------------|

      
	|--------------------------------|--------------------------------|
	|----------------15--------------|--------------------------------|
	|10------------------------------|7---7---7---7---7---7---7---7---|
	|--------------------------------|--------------------------------|
					  I       -       ma  -   gine me
        
	|--------------------------------|--------------------------------|
	|--------------------------------|------------------------11------|
	|10--10--10--10--10--10--10--10--|9---9---9---9---9---9-------9---|
	|--------------------------------|--------------------------------|
					  taught  by      tra  -  gedy
      
	|--------------------------------|--------------------------------|
	|--------10-----------10---------|--------------------------------|
	|8---8--------8---8--------8-----|--------------------10---10-----|
	|--------------------------------|8---8---8---8---8------------8--|
			         Re  -    lea		-     se	is
    
	|--------------------------------|--------------------------------|
	|--------------------------------|--------------------------------|
	|--------------------9---9-------|--------------------------------|
	|7---7---7---7---7-----------7---|1---1---1---1---1---1---1---1\--|
	 pea		-		ce
                                                 "!!!
	|------------------------------------|--------------------------------|
	|------------------------------------|--------------------------------|
	|--------------------------15--------|5-------5---7---8-------------8-|
	|13-13-13-13-13-13-13--14--------13--|----------------------------10--|
						I heard a little girl
      
	|--------------------------------|--------------------------------|
	|----------------10------9---7---|----------------------------3---|
	|10----------10------------------|5-----------7---8-------------5-|
	|--------------------------------|--------5-----------------------|
		     And wha  -   t  she  said was something beautiful
      
	|--------------------------------|--------------------------------|
	|--------------------------------|--------------------------------|
	|------------------5-8-5-5-1012--|---------------8-------8--10-lr-|
	|3---------5-7-8-8-------------8-|10------10----------10----------|
				      To  give your love no matter what
      
	|--------------------5-------5---|--------------------------------|
	|----------------5-7-----5-7-----|--------------------------------|
	|(lr2)---------------------------|3-----------3---2-----------3---|
	|--------------------------------|--------------------------------|
		    And  what she said...	  I	  lo  -   ve   
       
	|--------------------------------|--------------------------------|
	|----------------7---------------|--------------------------------|
	|0-----------0-------0-----------|3-----------3---5/--12----------|
	|--------------------------------|------------------------0---5---|
	 all	 of you				  Hurt    by      the  co -
                  
	|----------------141414141414----|--------------------------------|
	|----------------------------12\-|----------------5---------------|
	|--------------------------------|3-----------3-------------------|
	|--------------------------------|--------------------------------|
	 ld					  So      ha  - rd  & lone-
        
	|--------------------------------|--------------------------------|
	|--------------------------------|--------------------7/9---------|
	|0-----------0---0---------------|3-----------3---5-----------0-lr|
	|--------------------------------|--------------------------------|
	 ly too					 When     you     don't know		
        
	|--------------------------------|--------------------------------|
	|--------------------------------|--------------------------------|
	|(lr4)---------------------------|5---5---5---5---8---8---8---8---|
	|--------------------------------|--------------------------------|
		 your	-    se   -    lf
     
	|--------------------------------|--------------------------------|
	|--------------------------------|--------------------------------|
	|10--10--10--10--10/151515151515-|5---5---5---5---8---8---8---8---|
	|--------------------------------|--------------------------------|

    
	|--------------------------------|---------------------------------|
	|--------------------------------|---------------------------------|
	|10--10--10--10--10/151515151515-|5---5---5---5---3---3---3---3----|
	|--------------------------------|---------------------------------|

     
	|--------------------------------|--------------------------------|
	|--------------------------------|--------------------------------|
	|2---2---2---2---8---8---8---8---|5---5---5---5---8---8---8---8---|
	|--------------------------------|--------------------------------|

       
	|--------------------------------|-------------------------------||
	|--------------------------------|-------------------------------||
	|1010101010--1010/151515151512---|5(lr4)-------------------------||
	|--------------------------------|-------------------------------||
Comments