Red Hot Chili Peppers - Johnny Kick Hole In The Sky Chords & Tabs

 

Johnny Kick Hole In The Sky Chords & Tabs

Red Hot Chili Peppers Chords & Tabs

Version: 3 Type: Bass Tab 0 ratings
1 star 2 stars 3 stars 4 stars 5 stars
comments

Johnny Kick Hole In The Sky Bass Tab

Johnny,kick a hole in The Sky
Red Hot Chili Peppers
Mothers Milk

tabbed by TomAnthony

^=pull off
T=Slap
P=Pop

  Bass fig.1 (Intro/verse)
  T   T   T   T     T   T T   T T
G-------------------------------------------------------------
D-------------------------------------------------------------
A-------------------------------------------------------------
E-5^0-4^0-3^0-2^0---5^0--0-4^0--0-3^0-------------------------

Pre-Chorus
  Bass fig.2
G-9-9-7-7--------------------------9-9-7-7---------------------------
D---------9-9-7-7--7-7-5-5-7-7-5-5---------9-9-7-7--7-7-5-5----------
A----------------------------------------------------------7-7-5-5---
E--------------------------------------------------------------------

  Bass fig.3(end of 1st pre chorus)
G-9-9-7-7------------------------------------------------------------
D---------9-9-7-7--7-7-5-5-7-7-5-5-----5-5--5-5--5-5--5-5--5---------
A------------------------------------7-----7----7----7----7----------
E--------------------------------------------------------------------
[ Tab from: http://www.guitartabs.cc/tabs/r/red_hot_chili_peppers/johnny_kick_hole_in_the_sky_btab_ver_3.html ]
  Bass fig.4(end of 2nd pre chorus)
G-9-9-7-7------------------------------------------------------------
D---------9-9-7-7--7-7-5-5-7-7-5-5------------------------------0-0--
A----------------------------------7-7-5-5---------------------------
E------------------------------------------7-7-5-5--5-5-3-3-0-0------

 Bass fig.5(Chorus)
  T T P T T T P T T P T T T P   T T P T T T P T T P T T T P
G-----0-------0-----0-------0-------2-------2-----2-------2----------
D--------------------------------------------------------------------
A---------1-------------1---------------3-------------3--------------
E-1-3---3---3---1-3---3---3-----3-5---5---5---3-5---5---5------------

 Bass fig.6(johnny,johnny....)
  T P T P T P T P T P T P T P T P T P T P T P T P T P T P T P T P
G---7---7---7---7---7---7---7---7---10--10--10--10--10--10--10--10---
D--------------------------------------------------------------------
A-5---5---5---5---5---5---5---5---8---8---8---8---8---8---8---8------
E--------------------------------------------------------------------

Fin~
Comments