Red Hot Chili Peppers - Interlude Between Zephyr Songcalifornication Live Chords & Tabs

 

Interlude Between Zephyr Songcalifornication Live Chords & Tabs

Red Hot Chili Peppers Chords & Tabs

Version: 1 Type: Tab 3 ratings
1 star 2 stars 3 stars 4 stars 5 stars
comments

Interlude Between Zephyr Songcalifornication Live Tab

   
Chillies Live in Hyde Park - Interlude between Zephyr Song+Californication

Dedicated to the fantastic 6: Roomsey,Masseyo,Stinner,Hill Bear,Rashers,
                              Jackson5
                 the gorgeous Emma B, and linger, who i wish will get better 
                 soon so the weekly visit to the martys will return!

This is my favourite part of the live album, nobody has tabbed it yet, 
so i've had a go
Took me hours to work this tab out, its not 100% correct,
but its the way i play it and it sounds quality. make sure you listen
along to the albumwhile you play as i havn't stated timing etc...
Note: this is only the lead guitar, not the bass which starts first.
The bass starts atarond 04:15, and the lead about 05:02 btw if someone 
would like to create a tab for the bass it would b much appreciated so 
me and linger can play both together which would sound sooo cool!
Anyways, hpe u enjoy and find it useful, this is my frst tab so don't
slaughter me to much!

Standard Tuning


e:--------------------------------------------------
B:---10-10-10------------------10-10-10-------------
G:-----9--9----10-10/12-10-------9--9----10-10-10-10
D:------------------------10------------------------
A:--------------------------------------------------
E:--------------------------------------------------


e:--------------------------------------
B:--------------------------------------
G:---9-9-9-10-----10-10--9-9-9-10-----10
D:-----------12-10---------------12-10--
A:--------------------------------------
E:--------------------------------------


e:---10-12-12-12-10--10-----------------12-12-12-10--10--------------10---
B:-----------------13--13-10-10-10-10--------------13--13-13-13-12-10--12-
G:------------------------------------------------------------------------
D:------------------------------------------------------------------------
A:------------------------------------------------------------------------
E:------------------------------------------------------------------------


e:----------------
B:-10-10--10-10-10
G:------12--------
D:----------------
A:----------------
E:----------------

e:---------------------------------------------------------
B:-10-10-------------------------------------------10-13-10
G:------12-10\9-9--9-12/14-12--12/14-12--10-10-10----------
D:---------------12----------14--------14------------------
A:---------------------------------------------------------
E:---------------------------------------------------------

[ Tab from: http://www.guitartabs.cc/tabs/r/red_hot_chili_peppers/interlude_between_zephyr_songcalifornication_live_tab.html ]
e:12-10--12-15-13\12-12-13-12--12-10-10--10---------------------12-----
B:-----13--------------------13--------13--13-12-13-12-10-10--10--12\10
G:----------------------------------------------------------12---------
D:---------------------------------------------------------------------
A:---------------------------------------------------------------------
E:---------------------------------------------------------------------


e:------------------------------------------------------------
B:-10--10-10-10-10--------------------------------------------
G:---12-----------12-10-10-10-10-9--------------9-9-9---------
D:--------------------------------12-12-10-10-10-----12-10-10-
A:------------------------------------------------------------
E:------------------------------------------------------------


e:----------------------
B:----------------------
G:----------------------
D:10-10-10-12-12-12-10--
A:--------------------12
E:----------------------


e:------------------------------------------------------------------
B:-------------------------------------------------------------10-10
G:-9-9-9-9-9-------------------------------9-9-9-9-9-12-9-12-12-----
D:----------12-10-10-10-10-10-12-12-12-10---------------------------
A:---------------------------------------12-------------------------
E:------------------------------------------------------------------


e:---------------------
B:-10-10-10-10-13-10-13
G:---------------------
D:---------------------
A:---------------------
E:---------------------


e:---12-12-12-12-12-12-15-12-15-15-17-17-17-17-17-17-17-15-13-12-12-
B:-13---------------------------------------------------------------
G:------------------------------------------------------------------


e:-12-12-12-13-12-10
B:------------------
G:------------------


e:----------------12-10------------12-10----------10/12\10---------
B:-13-13-13-13-13------13-10-10-10------13----------------13-10-10-
G:----------------------------------------10-10-10-----------------


e:----10/12\10----
B:-10---------13--
G:--------------10


e:---------------------------------12-12-12------13------13-13-13-
B:-13-13-12-12-12-12-10-10-13-10-10---------10-10---10-10---------
G:----------------------------------------------------------------


e:------12-----12-----12-----------13-13-13-15-15-15-17~-12~-12~-12~-
B:-10-10--13-10--13-10--13-10-10-10----------------------------------
G:-------------------------------------------------------------------

   ~ = play approx.9 times


e:-12-10-10------------------12-12-10-10-----------------
B:---------13-13-12-12-10-10------------13-13-12-12-10-10   play this twice
G:-------------------------------------------------------


e:-15-17~-15-17~-15-17~-15-17-17-17-17-17-19b-19b-17~-15~-13-12~-10------
B:------------------------------------------------------------------13-13
G:-----------------------------------------------------------------------

then into californication....

e:--------
B:-----0-1
G:--------
D:---2----
A:-0------
E:--------


there it is

please email me with any comments or queries.....roomsey11@hotmail.com
Comments