Red Hot Chili Peppers - If Chords & Tabs

 

If Chords & Tabs

Red Hot Chili Peppers Chords & Tabs

Version: 1 Type: Bass Tab

If Bass Tab

   
-----------------------------------------------------------------------------
			     If - The Red Hot Chili Peppers
-----------------------------------------------------------------------------

Tabbed By : Kevin A. (Felas_Kevin)
e-mail: vekiskev@yahoo.com

Tuning: standard

This is a really beautiful bassline, I hope everybody enjoys it.  :)

Update: Fixed a few small note mistakes, tab is perfect.

(0:10)
*let all notes ring throughout
G|-18-----18-16-----16-14-----16-14-----14---|
D|---14-14-----14-14-----14-14-----14-14-----|
A|-----0---------0---------0---------0-------|
E|-------------------------------------------|

G|-11-----11-13-----13-14-----16-14-----14--|
D|---12-12-----14-14-----14-14-----14-14----|
A|-----0---------0---------0---------0------|
E|------------------------------------------|

G|-18-19-18-16-18-16-14---16-14---14------|
D|---------------------14-------14--------|
A|---0-----0--0-----0----0-----0----------|
E|----------------------------------------|

G|-11-----11-13-----13-14-----16-14-----14--|
D|---12-12-----14-12-----14-14-----14-14----|
A|-----0---------0---------0---------0------|
E|------------------------------------------|

G|-18-----18-16-----16-14-----16-14-----14---|
D|---14-14-----14-14-----14-14-----14-14-----|
A|-----0---------0---------0---------0-------|
E|-------------------------------------------|

G|-11-----11-13-----13-14-----16-14-----14--|
D|---12-12-----14-12-----14-14-----14-14----|
A|-----0---------0---------0---------0------|
E|------------------------------------------|

G|-18-19-18-16-18-16-14---16-14---14------|
D|---------------------14-------14--------|
A|---0-----0--0-----0----0-----0----------|
E|----------------------------------------|

G|-11-----11-13-----13-14-----16-14-----14--|
D|---12-12-----14-12-----14-14-----14-14----|
A|-----0---------0---------0---------0------|
E|------------------------------------------|

(0:51)
G|-13-----13----13-----13----13-----16-14-----14---|
D|---14-14--14----14-14--14----14-14-----14-14-----|
A|-----0------------0------------0---------0-------|
E|-------------------------------------------------| x2

G|-10-----10-12------12-14---14--14---14-----|
D|---10-10-----12--12-----14---14--14--------|
A|-----8---------10---------0--------0-------|
E|-------------------------------------------| x2
[ Tab from: http://www.guitartabs.cc/tabs/r/red_hot_chili_peppers/if_btab.html ]
(1:12)
G|-/18-----18-16-----16-14-----16-14-----14---|
D|----14-14-----14-14-----14-14-----14-14-----|
A|------0---------0---------0---------0-------|
E|--------------------------------------------|

G|-11-----11-13-----13-14-----16-14-----14--|
D|---12-12-----12-14-----14-14-----14-14----|
A|-----0---------0---------0---------0------|
E|------------------------------------------|

G|-18-----18-16-----16-14-----16-14-----14---|
D|---14-14-----14-14-----14-14-----14-14-----|
A|-----0---------0---------0---------0-------|
E|-------------------------------------------|

G|-11-----11-13-----13-14-----16-14-----14--|
D|---12-12-----14-12-----14-14-----14-14----|
A|-----0---------0---------0---------0------|
E|------------------------------------------|

G|-18-19-18-16-18-16-14---16-14---14------|
D|---------------------14-------14--------|
A|---0-----0--0-----0----0-----0----------|
E|----------------------------------------|

G|-11-----11-13-----13-14-----16-14-----14--|
D|---12-12-----14-12-----14-14-----14-14----|
A|-----0---------0---------0---------0------|
E|------------------------------------------|

G|-13-----13----13-----13----13-----16-14-----14---|
D|---14-14--14----14-14--14----14-14-----14-14-----|
A|-----0------------0------------0---------0-------|
E|-------------------------------------------------| x4

(2:04)
G|-10-----10-12------12-14---14--14---14-----|
D|---10-10-----12--12-----14---14--14--------|
A|-----8---------10---------0--------0-------|
E|-------------------------------------------| x2

G|-10-----10-9---9-10-----10-9---9-10-----10-9---9----|
D|---10-10----9-9----10-10----9-9----10-10----9-9-----|
A|-----8-------7-------8-------7-------8-------7------|
E|----------------------------------------------------|

G|-7-------7---7-------7---7-------7-------7------|
D|---7---7---7---7---7---7---7---7---7---7---7----|
A|-----5-----------5-----------5-------5----------|
E|------------------------------------------------|

G|-10-----10--10-----10-7-------7---7------7------|
D|---10-10--10--10-10-----7---7---7---7---7--7----|
A|-----8----------8---------5-----------5---------|
E|------------------------------------------------| x4

Ending
G|--------|
D|--------|
A|-5~~~~--|
E|--------|

There you go, please rate :)
=============================================================================
| /  slide up
| \  slide down
| h  hammer-on
| p  pull-off
| ~  let ring
| +  harmonic
| x  Mute note
=============================================================================