Red Hot Chili Peppers - I Like Dirt Chords & Tabs

 

I Like Dirt Chords & Tabs

Red Hot Chili Peppers Chords & Tabs

Version: 3 Type: Tab 0 ratings
1 star 2 stars 3 stars 4 stars 5 stars
comments

I Like Dirt Tab

-----------------------------------------------------------------------------
                   RED HOT CHILI PEPPERS - I LIKE DIRT
-----------------------------------------------------------------------------

tabbed by: Stellar Legs a.k.a. Karl Malone
e-mail: uncle_stellar@hotmail.com
tuning: Standard

The other version of this song is pretty accurate, but I think my solo works
better. Judge for yourself:
                                   p.m. p.m.
e--5--7----5--7----5--7----5--7----9-9-9-9-9--|
B--5--7----5--7----5--7----5--7---------------|
G--5--7----5--7----5--7----5--7---------------|
D---------------------------------------------|
A---------------------------------------------|
E---------------------------------------------|

Verse
e--x-x-7-7-x-x-7-x-7-x-7^---x-x-7-7-x-x-7-x-7-x-7^---|
B--x-x-7-7-x-x-7-x-7-x-7^---x-x-7-7-x-x-7-x-7-x-7^---|
G--x-x-7-7-x-x-7-x-7-x-7^---x-x-7-7-x-x-7-x-7-x-7^---|
D----------------------------------------------------|
A----------------------------------------------------|
E----------------------------------------------------|

Chorus
e-7-7-7--x--7-7-7--x--7-7-7--x--7-7-7---------------------------------------|
B-7-7-7--x--7-7-7--x--7-7-7--x--7-7-7---------------------------------------|
G-7-7-7--x--7-7-7--x--7-7-7--x--7-7-7----7-------7-----------7-------7------|
D-------------------------------------------9-9-----9-9-x-x-----9-9-----9-9-|
A---------------------------------------------------------------------------|
E---------------------------------------------------------------------------|
                                          p.m.    p.m.    p.m.    p.m.  p.m.

Interlude
e----------------------------|
B----------------------------|
G--8-------------------------|
D-----8--10------------------|  x 3
A------------8--10--6--8-----|
E-------------------------8--|

e--------------------------------|
B--/8----------------------------|
G------8--10---------------------|
D-------------8--10--------------| 4th time
A--------------------8--10--6~---|
E--------------------------------|

Repeat Verse

Repeat Chorus
[ Tab from: http://www.guitartabs.cc/tabs/r/red_hot_chili_peppers/i_like_dirt_tab_ver_3.html ]
Solo (Wah pedal w/ Dostortion)
e----------------------------------------------------------------|
B----------------------------------------------------------------|
G--------------------------------------------------7--9^--9^^^---|
D----------------5^----5^----7^-7-5--7p5-7p5--7/9----------------|
A-------5/7--7^-----7--------------------------------------------|
E--5/7-----------------------------------------------------------|

e---------------------------------------------------------------------|
B------------------------7^--7h10p7----7h10p7--------------7h10p7-----|
G---------------7^------------------9----------9--7h9p7-9----------9--|
D--7--9^-x----------9-------------------------------------------------|
A---------------------------------------------------------------------|
E---------------------------------------------------------------------|

e----------------------------10^---------------------------------13^-13-12--|
B--7h10p7h10----------12^--------12-10/12--------------------12-------------|
G-------------9-7^------------------------------9^--9p7---------------------|
D---------------------------------------------------------------------------|
A---------------------------------------------------------------------------|
E---------------------------------------------------------------------------|

e--14--17^------------------------------------------------------------------|
B----------17p15---10h12-12-10h12p10--(just mess around; picks scrapes,etc.)|
G---------------------------------------------------------------------------|
D---------------------------------------------------------------------------|
A---------------------------------------------------------------------------|
E---------------------------------------------------------------------------|

Outro
e--x-x-7-7-x-x-7-x-7-x-7^--x-x-7-7-x-x-7-x-7-x-7^^~---|
B--x-x-7-7-x-x-7-x-7-x-7^--x-x-7-7-x-x-7-x-7-x-7^^~---|
G--x-x-7-7-x-x-7-x-7-x-7^--x-x-7-7-x-x-7-x-7-x-7^^~---| x 2
D-----------------------------------------------------|
A-----------------------------------------------------|
E-----------------------------------------------------|
Comments