Red Hot Chili Peppers - I Like Dirt Chords & Tabs

 

I Like Dirt Chords & Tabs

Red Hot Chili Peppers Chords & Tabs

Version: 1 Type: Bass Tab 0 ratings
1 star 2 stars 3 stars 4 stars 5 stars
comments

I Like Dirt Bass Tab

I Like Dirt - Bass Tab

By the Red Hot Chili Peppers
>From the album Californication
Tabbed by Robert Petersson (mr.schh@post.netlink.se) and Eric Siljander (eds@sfu.ca)

Intro
G|--------------------------|
D|--------------------------|
A|--------------------------|
E|--5-7---5-7---5-7---5-7---|

Verse 1 (with some variations)
G|-----------------------------------------| (x8)
D|------9------9-x7-8-----9------9-x7-8-9--|
A|-----------------------------------------|
E|--5/7---x5/7--------5/7---x5/7-----------|

"Bridge"
G|-----------------------------| (x2)
D|-----------------------------|
A|--5------5------5-----5------|
E|----7-7----7-7----7-7---7-7--|

Verse 2 (with some variations)
G|-----------------------------------------| (x6)
D|------9------9-x7-8-----9------9-x7-8-9--|
A|-----------------------------------------|
E|--5/7---x5/7--------5/7---x5/7-----------|
[ Tab from: http://www.guitartabs.cc/tabs/r/red_hot_chili_peppers/i_like_dirt_btab.html ]
Interlude
G|-----------------------------------------|
D|------------------------13---10---8--6---|
A|--------------------------13---10--8--6--|
E|--8----8-8-------8----8------------------|

Verse 3 (with some variations)
G|-----------------------------------------| (x2)
D|------9------9-x7-8-----9------9-x7-8-9--|
A|-----------------------------------------|
E|--5/7---x5/7--------5/7---x5/7-----------|

"Bridge" (same as Bridge 1)

Solo
G|--------------------------|
D|--------------------------|
A|--5-7---5-7---5-7---5-7---|
E|--------------------------|

G|-----------------------------------------| (x2)
D|------9------9-x7-8-----9------9-x7-8-9--|
A|-----------------------------------------|
E|--5/7---x5/7--------5/7---x5/7-----------|

Verse 4
G|-----------------------------------------| (x2)
D|------9------9-x7-8-----9------9-x7-8-9--|
A|-----------------------------------------|
E|--5/7---x5/7--------5/7---x5/7-----------|

Ending (same as Bridge)

-----------------------------------------------------------

The variations in the verses consist mainly of these notes
G-|-----------------------|
D-|--9--7-----------------|
A-|--------9--7--5--------|
E-|-----------------7--5--|



Comments