Red Hot Chili Peppers - I Could Of Lied Chords & Tabs

 

I Could Of Lied Chords & Tabs

Red Hot Chili Peppers Chords & Tabs

Version: 1 Type: Tab 0 ratings
1 star 2 stars 3 stars 4 stars 5 stars
comments

I Could Of Lied Tab

Transcirbed by Craig Hill
E-Mail one_what@hotmail.com
Song: I could of lied
Artist: Red hot chilie peppers

Verse
e-------------------------------------------|
B-------------------------------------------|
G-------------------------------------------|
D-------0----4----0----4----4/7--5--4--0----|
A--0h2-----2----2----2----2-----------------|
E-----------------------------------------3-|

the verse sometimes changes to this
e---------------------------------------------|
B------------------------2h3p2----------------|
G---------------------------------------------|
D-------0----4----0----4-------4/7--5--4--0---|
A--0h2-----2----2----2------------------------|
E-------------------------------------------3-|

Pre-Chorus
e------------------------------------|
B------------------------------------|
G--4--4-x---7--7--7--7---2--2---4--4-|
D--4--4-x---7--7--7--7---2--2---5--5-|
A--2--2-x---5--5--5--5---0--0---0--0-|
E------------------------------------|

Chorus
e------------------------------------------------------------|
B------------------------------------------------------------|
G--9--9-x---12--12--12--12--12--12---7--7---5--5--5--5--5--5-|
D--9--9-x---12--12--12--12--12--12---7--7---5--5--5--5--5--5-|
A--7--7-x---10--10--10--10--10--10---5--5---3--3--3--3--3--3-|
E------------------------------------------------------------|

[ Tab from: http://www.guitartabs.cc/tabs/r/red_hot_chili_peppers/i_could_of_lied_tab.html ]
Solo
e---------------------------------------------------------|
B-------------------------------------7-7--7--7--8b9r8-7--|
G---------------------------------6/7--------9-9--------7-|
D---------------7--9b10r9------9--------------------------|
A-------5--7/9-------------10-----------------------------|
E--5/7----------------------------------------------------|

e----------------------7-------7--------------------|
B--------------7b-7b--7-7--10b---10--7--7h10p7------|
G--7--9--7--9--9b-9b---------------------------9-7--|
D-------------------------------------------------9-|
A---------------------------------------------------|
E---------------------------------------------------|

e----------------------------------------------------------|
B------8-7-7h8p7-----7-------------------------------------|
G---------------7---7-7-------------------------------14h15|
D--9-9------------9----9-7------------------12--14h15------|
A--------------------------7/9--9/10--10/14----------------|
E----------------------------------------------------------|

e---------------16b-15-14------------------------------------|
B--15--17b19r17----------15-----------7b-7b------------------|
G---------------------------7-9--7-9--9b-9b------------------|
D-------------------------------------------7/9-9\5--5\4/5\4-|
A------------------------------------------------------------|
E------------------------------------------------------------|

Then back into the verse
 
Comments