Red Hot Chili Peppers - Hump De Bump Chords & Tabs

 

Hump De Bump Chords & Tabs

Red Hot Chili Peppers Chords & Tabs

Version: 3 Type: Bass Tab

Hump De Bump Bass Tab

   
"Hump de bump" by the Red Hot Chili Peppers
From the album "Stadium Arcadium" (Jupiter Disc)
Bassline by Michael Balzary (Flea)
Tabbed by Dan Bogosian (UtBDan)
Visit UtBDan's band's website at:
www.utbrocks.com

INTRO:
G--0---0---0---0---0--0-|
D-----------------------|
A-----------------------|
E-----------------------|

VERSE:
G-2---2------2---2-------|
D-0---0------0---0---3p0-|
A------------------------|
E------------------------|

G-2---2------2---2-----------|
D-0---0------0---0-----------|
A------------------------3h5-|
E-------------------3h5------|

G-2---2------2---2-------|
D-0---0------0---0---3p0-|
A------------------------|
E------------------------|

G-2---2------2---2---5p2-----|
D-0---0------0---0-------3h5-|
A----------------------------|
E----------------------------|

G-2---2------2---2-----------|
D-0---0------0---0-----------|
A------------------------3h5-|
E-------------------3h5------|

G-2---2------2---2------------|
D-0---0------0---0---3p0--3p0-|
A-----------------------------|
E-----------------------------|

CHORUS PART 1: (crank those highs)
G-2---2------2---2---2-4-|
D-0---0------0---0---0-0-|
A------------------------|
E------------------------|

G-2---2------2---2---2-4-2-|
D-0---0------0---0---0-0-0-|
A--------------------------|
E--------------------------|

G-2---2------2---2---2-4-|
D-0---0------0---0---0-0-|
A------------------------|
E------------------------|
[ Tab from: http://www.guitartabs.cc/tabs/r/red_hot_chili_peppers/hump_de_bump_btab_ver_3.html ]
G-2---2------2---2---2-4-2-|
D-0---0------0---0---0-0-0-|
A--------------------------|
E--------------------------|

CHORUS PART 2:
G----7-5---5----------------------------|
D--------7---75--35----8-7---7----------|
A-5------------------------8---86--36---|
E--------------------6------------------|

G--------------------------------------------------|
D----7-5--------5-3--------------------------------|
A--------7-5-------5-3--------6-8-6---------8-10-8-|
E-5----------3---------6--6-8-------8--8-10--------|

G----7-5---5----------------------------|
D--------7---75--35----8-7---7----------|
A-5------------------------8---86--36---|
E--------------------6------------------|

G--------------------------------------7-5---------|
D----7-5--------5-3------------------------7-5-----|
A--------7-5-------5-3--------6-8-6------------7-6-|
E-5----------3---------6--6-8-------8--------------|


DRUM SOLO:
G--------------|
D--------------|
A-5------------|
E--------------|


(lots of rest lol, then)

G---------------|
D---------------|
A-3-3-3-3-3~~-5-|
E---------------|

G---------------|
D-------3-------|
A-3-3-3---3~~-5-|
E---------------|

G---------------|
D---------------|
A-3-3-3-3-3~~-5-|
E---------------|

G---------------|
D-------3-------|
A-3-3-3---3~~-5-|
E---------------|

G---------------|
D---------------|
A-3-3-3-3-3~~-5-|
E---------------|

G---------------|
D-------3-------|
A-3-3-3---3~~-5-|
E---------------|

G---------------|
D---------------|
A-3-3-3-3-3~~-5-|
E---------------|

G-------------|
D---------3-5-|
A-3-3-3-3-----|
E-------------|