Red Hot Chili Peppers - Havana Affair Chords & Tabs

 

Havana Affair Chords & Tabs

Red Hot Chili Peppers Chords & Tabs

Version: 3 Type: Tab 0 ratings
1 star 2 stars 3 stars 4 stars 5 stars
comments

Havana Affair Tab

RED HOT CHILI PEPPERS
"HAVANA AFFAIR"
WE'RE A HAPPY FAMILY: TRIBUTE TO THE RAMONES

INTRO
E-----------------------------------|
B--------3-------------7------------|
G------4---4---4-----7---------6----|  x2
D----4-------4-----7---------7------|
A--2-------------5---------7--------|
E------------------------5----------|
[ Tab from: http://www.guitartabs.cc/tabs/r/red_hot_chili_peppers/havana_affair_tab_ver_3.html ]
VERSE
E---------------------------------------------|
B--------3---------------------5--------2-3-2-|
G------4---4--------4-0------6---6----2-------|
D----4------------0--------7--------2---------|
A--2------------2--------7--------------------|
E-------------3-------------------------------|

CHORUS [DISTORTION]
E----------|
B--/8------|
G----------| PLAY THIS OVER THE VERSE DURING THE CHORUS
D----------|
A----------|
E----------|

BRIDGE
E--------------------|
B--------------------|
G--/4-44-444-7-9-----|
D--/4-44-444-5-7-----|
A--/2-22-222-5-7-----|
E--------------------|
Comments