Red Hot Chili Peppers - Give It Away Chords & Tabs

 

Give It Away Chords & Tabs

Red Hot Chili Peppers Chords & Tabs

Version: 1 Type: Bass Tab 1 rating
1 star 2 stars 3 stars 4 stars 5 stars
comments

Give It Away Bass Tab

This is the proper bass tab for

Give it away
Red hot chili peppers


Verse
--------------14\-----------------------14\---------
---------12/14---------------------12/14------------
--------------------3--3-----------------------3----
--5----5-----------x--x-----5----5------------x-----
[ Tab from: http://www.guitartabs.cc/tabs/r/red_hot_chili_peppers/give_it_away_btab.html ]
Chorus
---------------------------------------
---------------------------------------
---------------------------------------
--5\-----3-5\------3-5\-------3-5\-----

Other Bit
----------------------------------------------------
----------------------------------------------------
---------------10\------------------------10\-------
--0----0-10/12-----x3--x3---0----0-10/12----------x3

Or somethin like that. Work it out, unlike the welsh guy.
Comments