Red Hot Chili Peppers - Get On Top Chords & Tabs

 

Get On Top Chords & Tabs

Red Hot Chili Peppers Chords & Tabs

Version: 5 Type: Tab 0 ratings
1 star 2 stars 3 stars 4 stars 5 stars
comments

Get On Top Tab

GET ON TOP

from "Californication"
Music by Anthony Kiedis, Michael Balzary (Flea), John Frusciante, Chad Smith
Warner Bros. Music 1999


key: 

5/7        slide up
x          muted note (deaden the string when you pluck it)
+          wah-wah open


    Intro: John w/ wah-wah & distorion

    +   O              +   O
e:--------------------------------------|
B:--------------------------------------|
G:--------------------------------------|
D:--2-2-2--5-5-5-5-----2---2/5-5-5-5----|
A:--x-----------------------------------|
E:--------------------------------------|


    Cool funky chorus: (clean guitar)

[ Tab from: http://www.guitartabs.cc/tabs/r/red_hot_chili_peppers/get_on_top_tab_ver_5.html ]
e:---------------------------------------------|
B:---------------------------------------------|
G:------5-5------5-----------5-5------5--------|
D:--7-7------5/7---------7-7------5/7----------|
A:---------------------------------------------|
E:---------------------------------------------|
                                  (Get on top!)



e:---------------------------------------|
B:---------------------------------------|
G:------5-5------5-----------5-5------5--|
D:--7-7------5/7---------7-7------5/7----|
A:---------------------------------------|
E:---------------------------------------|
      Complications of a mastermind...
Comments