Red Hot Chili Peppers - Fortune Faded Chords & Tabs

 

Fortune Faded Chords & Tabs

Red Hot Chili Peppers Chords & Tabs

Version: 5 Type: Tab 0 ratings
1 star 2 stars 3 stars 4 stars 5 stars
comments

Fortune Faded Tab

All the tabs for Fortune Faded on this site are inaccurate,
so I thought i'll tab it myself. Although this is NOT 100%
accurate, it is 90% acuurate, so read it, learn it and enjoy.

INTRO

e------------------------------------------------------------
B----------------7----------7--------------------------------
G-------------4----6------4---6--4----------5--2--5--2--5--2-
D--4-PLAY----------------------------------------------------
A--4-LOTS OF ------------------------------------------------
E--2-TIMES---------------------------------------------------

e-9--9--9--9----------------------------------5--2--5--2\-----
B-------------------7-------------7---------------------------
G----------------4-----6-------4-----6--4---------------------
D-------------------------------------------------------------
A-------------------------------------------------------------
E-------------------------------------------------------------

VERSE:   WAIT WHILE ANTHONY SINGS " OH I," AND PLAY THE FIRST CHORD
THEN WHEN HE SINGS "DO YOU" PLAY THE SECOND CHORD (NO RHYTHM)
[ Tab from: http://www.guitartabs.cc/tabs/r/red_hot_chili_peppers/fortune_faded_tab_ver_5.html ]
e------------------------------------------------------------
B------------------------------------------------------------
G----7----------------------6-PLAY A-------------------------
D----7-PLAY A FEW TIMES-----7-FEW----------------------------
A----5----------------------7-TIMES--------------------------
E------------------------------------------------------------
 PLAY IT AGAIN WHEN HE SINGS "HEY NOW, EVERYTIME I LOSE" TOO.

PLAY PART OF THE INTRO HERE

PLAY VERSE AGAIN

PLAY PART OF CHORUS AGAIN

CHORUS (ONCE AGAIN NO RHYTHM)

e---5----3----7----5--------------------------------------------
B---5----3----7----7--------------------------------------------
G---6----4----8----7----THEN REPEAT-----------------------------
D---7----5----9----7----A FEW TIMES-----------------------------
A---7----5----9----5--------------------------------------------
E---5----3----7-------------------------------------------------

PLAY PART OF INTRO AGAIN

PLAY VERSE PART AGAIN UNTIL HE SINGS "HEY NOW, EVERYTIME I LOSE"
 
THEN PLAY THE F5 CHORD AFTER BASS PART (POWER CHORD)

F5=    D--3 
       A--3   
       E--1

THEN PLAY CHORUS UNTIL IT ENDS
Comments