Red Hot Chili Peppers - Fortune Faded Chords & Tabs

 

Fortune Faded Chords & Tabs

Red Hot Chili Peppers Chords & Tabs

Version: 1 Type: Tab 1 rating
1 star 2 stars 3 stars 4 stars 5 stars
comments

Fortune Faded Tab

#-----------------------------------------------------------------------------#
#-- File created with Instab - http://www.pconline.com/~smcarey/instab.html --#
#-----------------------------------------------------------------------------#

Author/Artist: Red Hot Chili Peppers
Title: Fortune Faded
Transcribed by: Chris Valente
Email: ChrisValente@yahoo.com

Song Starts on F#. This is wrong, because i can barely hear the recording.

 Main riff w/ variations   
[ Tab from: http://www.guitartabs.cc/tabs/r/red_hot_chili_peppers/fortune_faded_tab.html ]
--------------------------------------------------------------------------
-------------------------------------------------------14-----------------
------11---------------11-----------14-10-14-10-14-10---------------------
---------12---------------12----------------------------------------------
--14------------14-14--------14-------------------------------------------
--------------------------------------------------------------------------                               
--------------------------------------------------------------------------
--------------------------------------------------------------------------
------11---------------11-----------14---10---14---10\--------------------
---------12---------------12----------------------------------------------
--14------------14-14--------14-------------------------------------------
--------------------------------------------------------------------------
  Lyrics come during the below                                                               
-----------------------------------------|--------------------------------
-----------------------------------------|---------14-14------------------
-----------------------------------------|-7x7x7---14-14------------------
-----------------------------------------|-7x7x7---14-14------------------
-----------------------------------------|-5x5x5---12-12------------------
-----------------------------------------|--------------------------------
 
 Chorus                                                    

--10-----------5-----------7----------9-----------------------------------
--10-----------5-----------7----------9-----------------------------------
--11-----------6-----------8---------10-----------------------------------
--12-----------7-----------9---------11-----------------------------------
--12-----------7-----------9---------11-----------------------------------
--10-----------5-----------7----------9-----------------------------------
                                                                              

Comments