Red Hot Chili Peppers - Fortune Faded Chords & Tabs

 

Fortune Faded Chords & Tabs

Red Hot Chili Peppers Chords & Tabs

Version: 7 Type: Bass Tab 0 ratings
1 star 2 stars 3 stars 4 stars 5 stars
comments

Fortune Faded Bass Tab

-----------------------------------------------------------------------------
			     FORTUNE FADED- Red Hot Chilli Peppers
-----------------------------------------------------------------------------

Tabbed By : Russty
e-mail: russellsback@hotmail.com

Tuning:
standard

MAIN RIFF
G|--------------------------------------------------------------------------|
D|--------------------------------------------------------------------------|
A|-2-2-xxxx-2-2-xxxx-2-2-xxxx-5-x-5-x-5-x-555-------------------------------|
E|--------------------------------------------55555-55555-------------------|
[ Tab from: http://www.guitartabs.cc/tabs/r/red_hot_chili_peppers/fortune_faded_btab_ver_7.html ]
Chourus
G|--------------------------------------------9--7--9-7-0-------------------|
D|-----------9-7-5--55-5-5-5-5/9--99-9--9-7-5-------------------------------|
A|--7--77-7-----------------------------------------------------------------|
E|--------------------------------------------------------------------------|
Chourus end
G|---------------------------------------------------9-9-9--9-9-9-----------|
D|-----------9-7-5--55-5-5-5-5/9--99-9--9-7-5--------9-9-9--9-9-9-----------|
A|--7--77-7-----------------------------------------------------------------|
E|--------------------------------------------------------------------------|

a think dat rite please rate n ad your comments

Rusty
Comments