Red Hot Chili Peppers - Fortune Faded Chords & Tabs

 

Fortune Faded Chords & Tabs

Red Hot Chili Peppers Chords & Tabs

Version: 5 Type: Bass Tab 0 ratings
1 star 2 stars 3 stars 4 stars 5 stars
comments

Fortune Faded Bass Tab

I play guitar but this song is very easy

Intro
G---------------------------------------------------------------------
D---------------------------------------------------------4-4-4-4-4-4-
A------------------------------------------4-4-4-4-4-4----------------
E--2-2-2-2-2-2-2-2-4-2-2-2-2-2-2-2------------------------------------
Verse
G---------------------------------------------------------------------------
D---------------------------------------------------------------------------
A--2-2-x-x-2-2-x-x-2-2-x-x-2-2-x-x---5-x-5-x-5-5---2-2-2-2---2-2-2-2-2------
E---------------------------------------------------------------------------
[ Tab from: http://www.guitartabs.cc/tabs/r/red_hot_chili_peppers/fortune_faded_btab_ver_5.html ]
Chorus
G---------------------------------------------------------------
D---------------------------------------------------4-2--2------
A---------------5\------------------2-2-2-2-2-2--------5---5-3--
E--5-5-5-5-5------3-3-3-3-3-3-----------------------------------

G------------------------------------------------------------
D------------------------------------------------------------
A---------------5\------------------2-2-2-2-2-2--2-2-2-------
E--5-5-5-5-5------3-3-3-3-3-3--------------------------------

Order
Intro
Verse   x8
Chorus   
Verse   x5
Chorus   
Verse   x2
Intro
Chorus   x2


Thatís it 
Questions ,correction w\ Ulises e-mail antichrist_superstar_666@hotmail.com
or ulilupax_666@hotmail.com
Comments