Red Hot Chili Peppers - Fortune Faded Chords & Tabs

 

Fortune Faded Chords & Tabs

Red Hot Chili Peppers Chords & Tabs

Version: 2 Type: Bass Tab 2 ratings
1 star 2 stars 3 stars 4 stars 5 stars
comments

Fortune Faded Bass Tab

Red Hot Chili Peppers - Fortune Faded

Bass Tab

Now I haven't written in any timings because you all should be good enough to work them out.
I'm sure that this ISN'T 100% correct so feel free to correct me :) But it should be very close!

Intro and before last chorus
|----------|      |---------|
|----------|(X 4) |-4-4-4-4-|(X 2)
|----------|      |---------|
|-2-2--2-2-|      |---------|
[ Tab from: http://www.guitartabs.cc/tabs/r/red_hot_chili_peppers/fortune_faded_btab_ver_2.html ]
Verse/Bass Solo:
|-------------|      |-------|       |---------|
|-------------|(X 4) |-------|(X 2)  |---------|
|-2-2-x-x-x-x-|      |-5x5x5-|       |--0-0-0--|
|-------------|      |-------|       |---------|

Chorus (x4 1st and 2nd time, x8 last time):
|----------------|----------------|
|----------------|----------------|
|------5---------|------5-5-5-5---| (Might Be Dropped D)
|--5-5---7-5-3-3-|-7-7------------|

Tabbed by Peter: what_is_86@hotmail.com
Comments