Red Hot Chili Peppers - Fight Like A Brave Chords & Tabs

 

Fight Like A Brave Chords & Tabs

Red Hot Chili Peppers Chords & Tabs

Version: 3 Type: Tab 0 ratings
1 star 2 stars 3 stars 4 stars 5 stars
comments

Fight Like A Brave Tab

   
from the album "uplift mofo party plan"

No offense but the other people who tabbed this song before me were so wrong...

standard tuning...
Play with heavy distortion.

intro:
e--------------------|--------------------|--------------------|
B--------------------|--------------------|--------------------|
G--------------------|--------------------|--------------------|
D---7--7p5-----5--7--|---7--7p5-----5--7--|---7--7p5-----5--7--|
A-----------7--------|-----------7--------|-----------7--------|
E--------------------|--------------------|--------------------|
                                        rrraah!!

               G  D
e--------------3-----|
B--------------5--7--|
G--------------5--7--|
D---7--7p5-----4--7--|
A-----------7--3--5--|
E--------------3-----|

verse:  this is very similar to the intro.

e------------------------|--------------------|------------------------|
B--------------------5^--|--------------------|--------------------5^--|
G--------------------5^--|--------------------|--------------------5^--|
D---7--7p5-----5--7--5^--|---7--7p5-----5--7--|---7--7p5-----5--7--5^--|
A-----------7------------|-----------7--------|-----------7------------|
E------------------------|--------------------|------------------------|

               G  D            and heres this lil riff...
e--------------3-----|            |----------------------|
B--------------5--7--|            |----------------------|
G--------------5--7--|            |---------------5------|
D---7--7p5-----4--7--|            |---------5--------7~--|
A-----------7--3--5--|            |---5--7-----7---------|
E--------------3-----|            |----------------------|


Chorus: this is basicly the same thing as the verse 2 frets higher.
(i had a little trouble figuring out the bends in between riffs..but i think this sounds 
good)

e------------------------|--------------------------|
B--------------------7^--|--------------------9-7^--|
G--------------------7^--|--------------------9-7^--|
D---9--9p7-----7--9--7^--|---9--9p7-----7--9--9-7^--|
A-----------9------------|-----------9--------------|
E------------------------|--------------------------|

                                        A  E
e------------------------|--------------5--0----|  then it goes back to the
B--------------------7^--|--------------5--0----|  verse part
G--------------------7^--|--------------6--1----|
D---9--9p7-----7--9--7^--|---9--9p7-----7--2----|
A-----------9------------|-----------9--7--2----|
E------------------------|--------------5--0----|


solo: quite easy actually...but for a few parts you will need a harmonic pedal...so it 
kinda weird with out one...i will point those parts out.

[ Tab from: http://www.guitartabs.cc/tabs/r/red_hot_chili_peppers/fight_like_a_brave_tab_ver_3.html ]
e---------------------------|-----------------------------|
B-----------------------7^--|-----------------------9-7^--|
G-----------------------7^--|-----------------------9-7^--|
D--7--9-9-9-9-9-9p7---7-7^--|--7--9-9-9-9-9-9p7---7-9-7^--|
A-------------------9-------|-------------------9---------|
E---------------------------|-----------------------------|


e---10^12--10^12--10p7---------------|-------------------------|
B----------------------10p7--10^12~--|--15---------------------|
G------------------------------------|------14^16--16-14--12~--|
D------------------------------------|-------------------------|
A------------------------------------|-------------------------|
E------------------------------------|-------------------------|


e--------------------|-------------------|-------------------|
B--12-12-------------|-12-12-------------|-12-12-------------|
G--12-12-------------|-12-12-------------|-12-12-------------|
D--12-12-14p12-14p12-|-12-12-14p12-14p12-|-12-12-14p12-14p12-|
A--------------------|-------------------|-------------------|
E--------------------|-------------------|-------------------|


                                harmonic pedal...
e--------------------------|---17^18--17^19--17^20~--|
B--------------------------|-------------------------|
G--------------------------|-------------------------|
D-----------12--14-13-12~--|-------------------------|
A--12-13-14----------------|-------------------------|
E--------------------------|-------------------------|


   harmonic pedal........................
e--17^20~--17^20--17^20--15-17-17^20-17~~17~--|
B---------------------------------------------|
G---------------------------------------------|
D---------------------------------------------|
A---------------------------------------------|
E---------------------------------------------|


e-----12----12----12----12--|-----12----12----12----12--|------15------|
B--15----15----15----15-----|--14----14----14----14-----|--12------12--|
G---------------------------|---------------------------|--------------|
D---------------------------|---------------------------|--------------|
A---------------------------|---------------------------|--------------|
E---------------------------|---------------------------|--------------|


harmonic pedal...............
e----------------------------------|----------------------------|
B----------------------------------|----------------------------|
G--------------12^13---------------|-----------------7^9--7^9~--|
D--12--13--14---------14--13--12~--|--------5-------------------|
A----------------------------------|--5-6-7---7-6-5-------------|
E----------------------------------|----------------------------|

and thats it for the solo...the last 2 bends should be at the same time as the G, D part 
the end of the verse.


the outro is just the verse part...but with Anthony singing the chorus and John screwing 
in the key of A...
Comments