Red Hot Chili Peppers - Dosed Chords & Tabs

 

Dosed Chords & Tabs

Red Hot Chili Peppers Chords & Tabs

Version: 12 Type: Tab 0 ratings
1 star 2 stars 3 stars 4 stars 5 stars
comments

Dosed Tab

********************************************************
*************************************************************************
Dosed - Red Hot Chili Peppers
Tabbed by: Mad_Carol ( mad_carol@yeayea.com )
*************************************************************************
********************************************************

                     * 
|-------------------------------------------------------------|
|--------5-----------5-----------7-----------8----------------|
|-------------------------------------------------------------|
|-----5----------5-----------5-----------5--------------------|
|--3----------3-----------5-----------7-----------------------|
|-------------------------------------------------------------|

(*) is played on the * part above by another guitar.
While "guitar 1" plays those lines during the whole song 

(*)               (*)3rd 
|----------------|------------------|
|----------------|------------------|
|----------------|------------------|
|--9-9-12-9------|-9-9-12-14-9------|
|----------------|------------------|
|----------------|------------------|

**("I never had it anyway..."),
("wanted it to be with you / knew that it would be with you")
***("and everything will be okay"),("lay on, lay on...")
[ Tab from: http://www.guitartabs.cc/tabs/r/red_hot_chili_peppers/dosed_tab_ver_12.html ]
**                   *** 
|--19-17-15-14-15---|-15-14-12-10-12---|
|-------------------|------------------|
|-------------------|------------------|
|-------------------|------------------|
|-------------------|------------------|
|-------------------|------------------|

** and *** are played alternating themselves or on the parts 
I wrote before

|--12 12 12 12 12 12 12 12--|
|---------------------------|
|---------------------------|
|---------------------------|
|---------------------------|
|---------------------------|

  ------> chorus <------
( *, and chords )
On the chorus the riff * is played with some chords. 
I don't know which are they so if you do, please, 
please tell me! 

  ------> solo <------
|-----------------------------------------
|--17-15-17-15-17-15-17-15-17-15-12-12----
|-----------------------------------------
|-----------------------------------------
|-----------------------------------------
|-----------------------------------------
|-17-17-17-17-17-16-12-12-12-11-12-12-----
|-----------------------------------------
|-----------------------------------------

|-----------------------------------------
|-----------------------------------------
|--16-17-16-17-16-17-16-12-12-------------
|-----------------------------------------
|-----------------------------------------
|-----------------------------------------

|------------------------------------------------|
|------------------------------------------------|
|--19-19-19-19-19-19-17-17-17-17-17-16~17~16-19--|
|------------------------------------------------|
|------------------------------------------------|
|------------------------------------------------|

I'm not sure if it's right but that's the way I play it.
Any mistakes or sugestion, write me:  Carol ( mad_carol@yeayea.com )
Comments