Red Hot Chili Peppers - Dosed Chords & Tabs

 

Dosed Chords & Tabs

Red Hot Chili Peppers Chords & Tabs

Version: 1 Type: Tab 0 ratings
1 star 2 stars 3 stars 4 stars 5 stars
comments

Dosed Tab

   (transcribed for guitar)      (0:00)

 e ----12--------12-------12-------12-------11-------11-----9-----9--
 B ----------12--------12-------12-------11-------11------9-----9----
 G ------12---------12-------12-------11-------11-------9-----9------
 D ------------------------------------------------------------------
 A ------------------------------------------------------------------
 E ------------------------------------------------------------------

    intro: guitar 1   (0:00)

 e ------------------------------------
 B --------------5--------------5------
 G ------------------------------------
 D ----3---2-----------3----2----------
 A ------------------------------------
 E ------------------------------------

     guitar 2  (0:02)                  (0:15) 
          x3
 e ---------------------------  --------------------------
 B ---------------------------  --------------------------
 G ----4--4---7--4--4---------  -------4--4/7--7--9--4----
 D ---------------------------  --------------------------
 A ---------------------------  --------------------------
 E ---------------------------  --------------------------

    guitar 1   (0:03) w/light distortion

 e ----------------------------
 B ----------------------------
 G ----------------------------
 D -------5--4---2----0---2----
 A ----------------------------
 E ----------------------------

   riff 1 (0:34)                        riff 2  (0:39)

 e ----19--18--16-14--16------  ---------16--15--13--11--13-----
 B ---------------------------  --------------------------------
 G ---------------------------  --------------------------------
 D ---------------------------  --------------------------------
 A ---------------------------  --------------------------------
 E ---------------------------  --------------------------------

    solo 
[ Tab from: http://www.guitartabs.cc/tabs/r/red_hot_chili_peppers/dosed_tab.html ]
 e --12-10-12-10-12-10-12-10-12-10---------------12-10-12-10-12-10-12
 B --------------------------------12-12-12-12-----------------------
 G ------------------------------------------------------------------
 D ------------------------------------------------------------------
 A ------------------------------------------------------------------
 E ------------------------------------------------------------------

 e --10-12-10--------------------------------------------------------
 B -----------12-12-12-12--13-13-13-13-13-12---------------------14--
 G ------------------------------------------12-12-12-11-12-12---15--
 D ------------------------------------------------------------------
 A ------------------------------------------------------------------
 E ------------------------------------------------------------------

 e ------------------------------12-10-12-10-12-10-12-10-12-10-------
 B --15--14--15--14--15--14--11--------------------------------12-12-
 G --16--15--16--15--16--15--12--------------------------------------
 D ------------------------------------------------------------------
 A ------------------------------------------------------------------
 E ------------------------------------------------------------------

 e ---------12-10-12-10-12-10-12-10-12-10----------------------------
 B --12-12--------------------------------12-12-12-12/15--15-15-15---
 G ------------------------------------------------------------------
 D ------------------------------------------------------------------
 A ------------------------------------------------------------------
 E ------------------------------------------------------------------

 e --15-15-\-13-13-13-13-13-\-12-12---------12--------15-------------
 B ------------------------------------------------------------------
 G ------------------------------------------------------------------
 D ------------------------------------------------------------------
 A ------------------------------------------------------------------
 E ------------------------------------------------------------------

 e-mail:  slashrcp@hotmail.com

Comments