Red Hot Chili Peppers - Dont Forget Me Chords & Tabs

 

Dont Forget Me Chords & Tabs

Red Hot Chili Peppers Chords & Tabs

Version: 8 Type: Tab 0 ratings
1 star 2 stars 3 stars 4 stars 5 stars
comments

Dont Forget Me Tab

band:rchp
tabbed by:johnfleasciante
song title:don't forget me
album title:by the way

intro=bass only

verse(come in on 9th measure)

w/dist.and delay,set for eighth-note repeats
 p.m.-------------------------------------------| riff A
|-0-start-tremolo-pick--now stop--0--0-0-0-0--0-|
|-----------------------------------------------|
|-----------------------------------------------|
|-----------------------------------------------|
|-----------------------------------------------|
|-----------------------------------------------|
 
 Interlude
[ Tab from: http://www.guitartabs.cc/tabs/r/red_hot_chili_peppers/dont_forget_me_tab_ver_8.html ]
|-5h7p5h7p5h7p5h7p5h7p5h7p5h7p5h7p5h7p5h7p5h7p5h7p5-|
|---------------------------------------------------|
|---------------------------------------------------|
|---------------------------------------------------|
|---------------------------------------------------|
|---------------------------------------------------|
 T     T     T     T     T     T     T     T     T     T     T     T
|8p5p0-8p5p0-8p5p0-8p5p0-8p5p0-8p5p0-8p5p0-8p5p0-8p5p0-8p5p0-8p5p0-8p5p0-|
|------------------------------------------------------------------------|
|------------------------------------------------------------------------|
|------------------------------------------------------------------------|
|------------------------------------------------------------------------|
|------------------------------------------------------------------------|
  T     T     T     T     T     T  x2=riff A
|-8p5p0-8p5p0-8p5p0-8p5p0-8p5p0-8p5p0-|
|-------------------------------------|
|-------------------------------------|
|-------------------------------------|
|-------------------------------------|
|-------------------------------------|
 verse=play riff A and riff B
|----------------------------
|----------------------------
|----------------------------
|----------------------------
|----------------------------
|----------------------------

Chorus
  trem.picking---------------------------------|
|-5----------------------17---------------------|
|-5----------------------17---------------------|
|-----------------------------------------------|
|-----------------------------------------------|
|-----------------------------------------------|
|-----------------------------------------------|
 
Guitar Solo
 this solo was effing hard to figure out,so show sympathy if at all wrong!
 w/wah peddal
  trem pick all the way through.
 
|-12\----------------------12////15\\\\12\-|-----------------|
|------8--10-------10----------------------|-8-----10--------|
|------------------------------------------|-----------------|
|------------------------------------------|-----------------|
|------------------------------------------|-----------------|
|------------------------------------------|-----------------|
 stop trem.picking---------------------| start again-| now stop
|-----------------------------|---------------------------------|
|-10b-full-step-10b-full-step-|-10----8----8----------10--8-----|
|-----------------------------|-----------------9-------------9-|
|-----------------------------|---------------------------------|
|-----------------------------|---------------------------------|
|-----------------------------|---------------------------------|
play chorus
then....
       Interlude
 delay off                        x4 then play verse without riff B
|-----|-5-3-0-5-3-0-0-|-5-3-0-5-3-0-|
|-0---|---------------|-------------|
|-0---|---------------|-------------|
|-----|---------------|-------------|
|-----|---------------|-------------|
|---0-|---------------|-------------|

 That's it, enjoy!!
Comments