Red Hot Chili Peppers - Dani California Chords & Tabs

 

Dani California Chords & Tabs

Red Hot Chili Peppers Chords & Tabs

Version: 5 Type: Tab 0 ratings
1 star 2 stars 3 stars 4 stars 5 stars
comments

Dani California Tab

Red Hot Chili Peppers 
Dani California
Solo

/   Slide
P   Pull Off
H   Hammer On
<   Bend Down
>   Bend up
TP  Tremolo Pick


Part 1
----------------------------
----------------------------
-------------------10-------
--------------10--------12--
---10 / 12------------------
----------------------------

Part 2
-----------------------------------------------------------
-----------------------------------------------------------
-----------------------------------------------------------
-----------------------------------------------------------
---10 P 8--10 P 8--10 P 8--10 P 8--------------------------
------------------------------------10---------------------

Part 3
-----------------------------------------------------------
-----------------------------------------------------------
-----------------------------------------------------------
-----------------------------------------------------------
-------------------------3 / 5-----------------------------
-1 H 3--1 H 3--1 H 3--1------------------------------------

Part 4
-----------------------------------------------------------
-----------------------------------------------------------
---------------10------------------------------------------
-----------10--10----12------------------------------------
-10 / 12---------------------------------------------------
-----------------------------------------------------------

Part 5
-----------------------------------------------------------
-----------------------------------------------------------
-----------------------------------------------------------
-------------10------10--10--12----------------------------
---10 / 12-------12----------------------------------------
-----------------------------------------------------------

Part 6
-----------------------------------------------------------
---------------13--15--------------------------------------
-----12 / 14-----------------------------------------------
-----------------------------------------------------------
-----------------------------------------------------------
-----------------------------------------------------------

Repeat Parts 1-6 through once
Part !

Part 2

Part 3

Part 4

Part 5

Part 6
[ Tab from: http://www.guitartabs.cc/tabs/r/red_hot_chili_peppers/dani_california_tab_ver_5.html ]
Part 7
--------------------------------------------------------------------------------------
-----------13------15 P 13-----15 P 13------15 P 13------15 P 13------15 P 13---------
--12 / 14------14----------14-----------14-----------14-----------14-----------14-----
--------------------------------------------------------------------------------------
--------------------------------------------------------------------------------------
--------------------------------------------------------------------------------------

Part 4

Part 8
----------------------------------------------------------------------
----------------------------------------------------------------------
----------------------------------------------------------------------
----------10------10------10--------------------------10--------------
-10 / 12------12------12------10 P 8------8--10 / 12------10 P 8------
--------------------------------------10--------------------------10--

Part 4

Part 5

Part 9
----------------------------------------------------------------------
-----------13--15 > (17) < (15)---------------------------------------
--12 / 14-------------------------------------------------------------
----------------------------------------------------------------------
----------------------------------------------------------------------
----------------------------------------------------------------------

Part 4

Part 2

Part 3

Part 10 (Repeat a few times)
----------------------------------------------------------------------
-------------10--13 P 10-------------------------------------------------------
--12 > (14)--------------------------------------------------------------------
----------------------------------------------------------------------
----------------------------------------------------------------------
----------------------------------------------------------------------

LAST BIT 
-----------13--TP 15-------------10--13 P 10------10------------------------------------------------------------------------------
--13 / 15-------------------------------------13------13 P 10-------------13------------------------------------------------------
----------------------12 > (14)--------------------------------12 > (14)------12 > (14) < (12) P 10-----12 > (14) < (12) P 10-----
----------------------------------------------------------------------------------------------------12-------------------------12
----------------------------------------------------------------------------------------------------------------------------------
----------------------------------------------------------------------------------------------------------------------------------

This is my first piece please rate :)
Comments