Red Hot Chili Peppers - Dani California Chords & Tabs

 

Dani California Chords & Tabs

Red Hot Chili Peppers Chords & Tabs

Version: 2 Type: Tab 13 ratings
1 star 2 stars 3 stars 4 stars 5 stars
comments

Dani California Tab

Dani California
Red Hot Chili Peppers

intro/verse:
------------------------------
------5----------5---------5--  repeat as needed
------5----------6---------7--
------7----------7---------7--
----------------------5-5-----
-5-5--------3-3---------------

--------------------------------------------------
--------------------------------7h8p7-------------
--------5h7p5-------4h5p4---5-5-------------5h7p5-
---7-7----------5-5---------------------5-5-------
--------------------------------------------------
--------------------------------------------------

chorus:
----------------------------------------------
----------------------------------------------
-----------5-5-5-5--7-7-7-7-------------------
--3-3-3-3--5-5-5-5--7-7-7-7--7-7-7-7----------
--3-3-3-3--3-3-3-3--5-5-5-5--7-7-7-7----------
--1-1-1-1--------------------5-5-5-5----------
[ Tab from: http://www.guitartabs.cc/tabs/r/red_hot_chili_peppers/dani_california_tab_ver_2.html ]
solo
-----5--------------------------------------
-----6--------------------------------------
---5---7~-----------------------------------
-7--------5p3—5p3-5p3-5p3-------------------
---------------------------5-----------/5---
------------------------------5--3p1h3------
                                             }repeat 2x(top and bottom)
-----5--------------------------------------
-----6--------------------------------13-15-
---5---7~--2h5p2-5p2-5p2-5p2-5/7---14-------
-7------------------------------------------
--------------------------------------------
--------------------------------------------
    
---------------------------------------------------------------
------13-15-13----15-13----15-13----15-13----15-13----15-13----
---14----------14-------14-------14-------14-------14-------14-
---------------------------------------------------------------
---------------------------------------------------------------
---------------------------------------------------------------

-----5----------------------------------------
-----6----------------------------------------
---5---7~--2h5p2-5p2-5p2-------------5--------
-7-----------------------5p3---3-5/7---5p3----
-----------------------------5-------------5--
----------------------------------------------

-----5----------------------------------------
-----6--------------------------------13-15---
---5---7~--2h5p2-5p2-5p2-5p2-5/7---14---------
-7--------------------------------------------
----------------------------------------------
----------------------------------------------

-----5-------------------------------------
-----6-------------------------------------
---5---7~----------------------------------
-7--------5p3—5p3-5p3-5p3------------------
---------------------------5------------/5-
------------------------------/5--3p1h3----

----------------------------------------------|
----10h13p10---10h13p10---10h13p10---10h13p10-|
-b12--------b12--------b12--------b12---------| play very fast
----------------------------------------------|
----------------------------------------------|
----------------------------------------------|

-13h15-15-13h15-15-13h15-15-13h15-15-|
-------------------------------------|
-------------------------------------| play very fast
-------------------------------------| 
-------------------------------------|
-------------------------------------|

------13-------------------------------------------
-13h15--15-13-----10h13p10---10h13p10--------------
---------------b12--------b12---------12p10--------
----------------------------------------------12---
---------------------------------------------------
---------------------------------------------------
Comments