Red Hot Chili Peppers - Dani California Chords & Tabs

 

Dani California Chords & Tabs

Red Hot Chili Peppers Chords & Tabs

Version: 12 Type: Tab

Dani California Tab

Dani California Solo Tab

Around 3:50

Got this song like 30 minutes ago (1 Apr).

I'm in fucking love with it.

Anyway, here's the solo.


E:--------------------------------------------------------------|***
B:--------------------------------------------------------------|
G:--------------------------------------------------------------|
D:--------10-12v------------------------------------------------|
A:--10/12---------8h10p8h10p8h10p8h10p8h10p8--------------------|
E:-------------------------------------------10-----------------|

E:--------------------------------------------------------------|***
B:--------------------------------------------------------------|
G:--------------------------------------------------------------|
D:--------------------------------------------------------------|
A:----------------/5v-------------------------------------------|
E:---10\1---1-3-1-----------------------------------------------|

E:--------------------------------------------------------------|***
B:----------------------------------------------13-15v----------|
G:-----------------------------------------12/14----------------|
D:--------10-12v-----10--10---10-12v----------------------------|
A:--10/12----------12--12--12-----------------------------------|
E:--------------------------------------------------------------|

E:--------------------------------------------------------------|***
B:--------------------------------------------------------------|
G:--------------------------------------------------------------|
D:--------10-12v------------------------------------------------|
A:--10/12---------8h10p8h10p8h10p8h10p8h10p8--------------------|
E:-------------------------------------------10-----------------|
[ Tab from: http://www.guitartabs.cc/tabs/r/red_hot_chili_peppers/dani_california_tab_ver_12.html ]
E:--------------------------------------------------------------|***
B:--------------------------------------------------------------|
G:--------------------------------------------------------------|
D:--------------------------------------------------------------|
A:----------------/5v-------------------------------------------|
E:---10\1---1-3-1-----------------------------------------------|

E:--------------------------------------------------------------|***
B:----------------------------------------------13-15v----------|
G:-----------------------------------------12/14----------------|
D:--------10-12v----10--10---10-12v-----------------------------|
A:--10/12---------12--12--12------------------------------------|
E:--------------------------------------------------------------|

E:--------------------------------------------------------------|***
B:---------13------15p13---15p13---15p13---15p13---15p13--------|
G:--12/14-----14--------14------14------14------14-------14v----|
D:--------------------------------------------------------------|
A:--------------------------------------------------------------|
E:--------------------------------------------------------------|

E:--------------------------------------------------------------|***
B:--------------------------------------------------------------|
G:--------------------------------------------------------------|
D:--------10-12v----10--10-10-------------------10--------------|
A:--10/12---------12--12------10p8--------8/10----10\8----------|
E:---------------------------------10v-------------------10-----|

E:--------------------------------------------------------------|***
B:-----------------------------------------------13-15b16.5r15--|
G:-------------------------------------------14-----------------|
D:--------10-12v----10--10-10-12b13.5r12------------------------|
A:--10/12---------12--12----------------------------------------|
E:--------------------------------------------------------------|

E:--------------------------------------------------------------|***
B:--------------------------------------------------------------|
G:--------------------------------------------------------------|
D:--------10-12v----10--10-10-------------------10--------------|
A:--10/12---------12--12------10p8--------8/10----10\8----------|
E:---------------------------------10v-------------------10-----|

And a shit load of noise, end on C note

Love for Dani!